  0
SECTION
  2
HEADER
  9
$ACADVER
  1
AC1015
  9
$ACADMAINTVER
 70
     6
  9
$DWGCODEPAGE
  3
ANSI_1250
  9
$INSBASE
 10
0.0
 20
0.0
 30
0.0
  9
$EXTMIN
 10
0.0
 20
0.0
 30
0.0
  9
$EXTMAX
 10
431.8
 20
279.4
 30
0.0
  9
$LIMMIN
 10
0.0
 20
0.0
  9
$LIMMAX
 10
431.8
 20
279.4
  9
$ORTHOMODE
 70
     0
  9
$REGENMODE
 70
     1
  9
$FILLMODE
 70
     1
  9
$QTEXTMODE
 70
     0
  9
$MIRRTEXT
 70
     1
  9
$LTSCALE
 40
1.0
  9
$ATTMODE
 70
     1
  9
$TEXTSIZE
 40
3.8805555556
  9
$TRACEWID
 40
1.0
  9
$TEXTSTYLE
  7
Standard
  9
$CLAYER
  8
0
  9
$CELTYPE
  6
ByLayer
  9
$CECOLOR
 62
   256
  9
$CELTSCALE
 40
1.0
  9
$DISPSILH
 70
     0
  9
$DIMSCALE
 40
1.0
  9
$DIMASZ
 40
3.302
  9
$DIMEXO
 40
1.0
  9
$DIMDLI
 40
3.75
  9
$DIMRND
 40
0.0
  9
$DIMDLE
 40
0.0
  9
$DIMEXE
 40
1.0
  9
$DIMTP
 40
0.0
  9
$DIMTM
 40
0.0
  9
$DIMTXT
 40
3.8805555556
  9
$DIMCEN
 40
2.5
  9
$DIMTSZ
 40
0.0
  9
$DIMTOL
 70
     0
  9
$DIMLIM
 70
     0
  9
$DIMTIH
 70
     1
  9
$DIMTOH
 70
     1
  9
$DIMSE1
 70
     0
  9
$DIMSE2
 70
     0
  9
$DIMTAD
 70
     1
  9
$DIMZIN
 70
     0
  9
$DIMBLK
  1

  9
$DIMASO
 70
     1
  9
$DIMSHO
 70
     1
  9
$DIMPOST
  1

  9
$DIMAPOST
  1

  9
$DIMALT
 70
     0
  9
$DIMALTD
 70
     3
  9
$DIMALTF
 40
0.0393700787
  9
$DIMLFAC
 40
1.0
  9
$DIMTOFL
 70
     1
  9
$DIMTVP
 40
0.0
  9
$DIMTIX
 70
     0
  9
$DIMSOXD
 70
     0
  9
$DIMSAH
 70
     0
  9
$DIMBLK1
  1

  9
$DIMBLK2
  1

  9
$DIMSTYLE
  2
ISO-25
  9
$DIMCLRD
 70
     0
  9
$DIMCLRE
 70
     0
  9
$DIMCLRT
 70
     0
  9
$DIMTFAC
 40
1.0
  9
$DIMGAP
 40
1.524
  9
$DIMJUST
 70
     0
  9
$DIMSD1
 70
     0
  9
$DIMSD2
 70
     0
  9
$DIMTOLJ
 70
     0
  9
$DIMTZIN
 70
     0
  9
$DIMALTZ
 70
     0
  9
$DIMALTTZ
 70
     0
  9
$DIMUPT
 70
     0
  9
$DIMDEC
 70
     1
  9
$DIMTDEC
 70
     1
  9
$DIMALTU
 70
     2
  9
$DIMALTTD
 70
     3
  9
$DIMTXSTY
  7
Standard
  9
$DIMAUNIT
 70
     0
  9
$DIMADEC
 70
     1
  9
$DIMALTRND
 40
0.0
  9
$DIMAZIN
 70
     0
  9
$DIMDSEP
 70
    44
  9
$DIMATFIT
 70
     3
  9
$DIMFRAC
 70
     0
  9
$DIMLDRBLK
  1

  9
$DIMLUNIT
 70
     2
  9
$DIMLWD
 70
    -2
  9
$DIMLWE
 70
    -2
  9
$DIMTMOVE
 70
     0
  9
$LUNITS
 70
     2
  9
$LUPREC
 70
     1
  9
$SKETCHINC
 40
1.0
  9
$FILLETRAD
 40
10.0
  9
$AUNITS
 70
     0
  9
$AUPREC
 70
     1
  9
$MENU
  1
.
  9
$ELEVATION
 40
0.0
  9
$PELEVATION
 40
0.0
  9
$THICKNESS
 40
0.0
  9
$LIMCHECK
 70
     0
  9
$CHAMFERA
 40
0.0
  9
$CHAMFERB
 40
0.0
  9
$CHAMFERC
 40
0.0
  9
$CHAMFERD
 40
0.0
  9
$SKPOLY
 70
     0
  9
$TDCREATE
 40
2459536.604948796
  9
$TDUCREATE
 40
2459536.56328213
  9
$TDUPDATE
 40
2459536.604948982
  9
$TDUUPDATE
 40
2459536.563282315
  9
$TDINDWG
 40
0.0000000116
  9
$TDUSRTIMER
 40
0.0000000116
  9
$USRTIMER
 70
     1
  9
$ANGBASE
 50
0.0
  9
$ANGDIR
 70
     0
  9
$PDMODE
 70
     0
  9
$PDSIZE
 40
-1.0
  9
$PLINEWID
 40
0.0
  9
$SPLFRAME
 70
     0
  9
$SPLINETYPE
 70
     6
  9
$SPLINESEGS
 70
     8
  9
$HANDSEED
  5
227
  9
$SURFTAB1
 70
     6
  9
$SURFTAB2
 70
     6
  9
$SURFTYPE
 70
     6
  9
$SURFU
 70
     6
  9
$SURFV
 70
     6
  9
$UCSBASE
  2

  9
$UCSNAME
  2

  9
$UCSORG
 10
0.0
 20
0.0
 30
0.0
  9
$UCSXDIR
 10
1.0
 20
0.0
 30
0.0
  9
$UCSYDIR
 10
0.0
 20
1.0
 30
0.0
  9
$UCSORTHOREF
  2

  9
$UCSORTHOVIEW
 70
     0
  9
$UCSORGTOP
 10
0.0
 20
0.0
 30
0.0
  9
$UCSORGBOTTOM
 10
0.0
 20
0.0
 30
0.0
  9
$UCSORGLEFT
 10
0.0
 20
0.0
 30
0.0
  9
$UCSORGRIGHT
 10
0.0
 20
0.0
 30
0.0
  9
$UCSORGFRONT
 10
0.0
 20
0.0
 30
0.0
  9
$UCSORGBACK
 10
0.0
 20
0.0
 30
0.0
  9
$PUCSBASE
  2

  9
$PUCSNAME
  2

  9
$PUCSORG
 10
0.0
 20
0.0
 30
0.0
  9
$PUCSXDIR
 10
1.0
 20
0.0
 30
0.0
  9
$PUCSYDIR
 10
0.0
 20
1.0
 30
0.0
  9
$PUCSORTHOREF
  2

  9
$PUCSORTHOVIEW
 70
     0
  9
$PUCSORGTOP
 10
0.0
 20
0.0
 30
0.0
  9
$PUCSORGBOTTOM
 10
0.0
 20
0.0
 30
0.0
  9
$PUCSORGLEFT
 10
0.0
 20
0.0
 30
0.0
  9
$PUCSORGRIGHT
 10
0.0
 20
0.0
 30
0.0
  9
$PUCSORGFRONT
 10
0.0
 20
0.0
 30
0.0
  9
$PUCSORGBACK
 10
0.0
 20
0.0
 30
0.0
  9
$USERI1
 70
     0
  9
$USERI2
 70
     0
  9
$USERI3
 70
     0
  9
$USERI4
 70
     0
  9
$USERI5
 70
     0
  9
$USERR1
 40
0.0
  9
$USERR2
 40
0.0
  9
$USERR3
 40
0.0
  9
$USERR4
 40
0.0
  9
$USERR5
 40
0.0
  9
$WORLDVIEW
 70
     1
  9
$SHADEDGE
 70
     3
  9
$SHADEDIF
 70
    70
  9
$TILEMODE
 70
     1
  9
$MAXACTVP
 70
    64
  9
$PINSBASE
 10
0.0
 20
0.0
 30
0.0
  9
$PLIMCHECK
 70
     0
  9
$PEXTMIN
 10
1.0000000000E+20
 20
1.0000000000E+20
 30
1.0000000000E+20
  9
$PEXTMAX
 10
-1.0000000000E+20
 20
-1.0000000000E+20
 30
-1.0000000000E+20
  9
$PLIMMIN
 10
0.0
 20
0.0
  9
$PLIMMAX
 10
420.0
 20
297.0
  9
$UNITMODE
 70
     0
  9
$VISRETAIN
 70
     1
  9
$PLINEGEN
 70
     0
  9
$PSLTSCALE
 70
     1
  9
$TREEDEPTH
 70
  3020
  9
$CMLSTYLE
  2
Standard
  9
$CMLJUST
 70
     0
  9
$CMLSCALE
 40
20.0
  9
$PROXYGRAPHICS
 70
     1
  9
$MEASUREMENT
 70
     1
  9
$CELWEIGHT
370
    -1
  9
$ENDCAPS
280
     0
  9
$JOINSTYLE
280
     0
  9
$LWDISPLAY
290
     1
  9
$INSUNITS
 70
     4
  9
$HYPERLINKBASE
  1

  9
$STYLESHEET
  1

  9
$XEDIT
290
     1
  9
$CEPSNTYPE
380
     0
  9
$PSTYLEMODE
290
     1
  9
$FINGERPRINTGUID
  2
{5f0a7c2e-8da3-486a-bd21-45b8fb954848}
  9
$VERSIONGUID
  2
{FAEB1C32-E019-11D5-929B-00C0DF256EC4}
  9
$EXTNAMES
290
     1
  9
$PSVPSCALE
 40
0.0
  9
$OLESTARTUP
290
     0
  0
ENDSEC
  0
SECTION
  2
CLASSES
  0
CLASS
  1
ACDBDICTIONARYWDFLT
  2
AcDbDictionaryWithDefault
  3
ObjectDBX Classes
 90
        0
280
     0
281
     0
  0
CLASS
  1
VISUALSTYLE
  2
AcDbVisualStyle
  3
ObjectDBX Classes
 90
     4095
280
     0
281
     0
  0
CLASS
  1
MATERIAL
  2
AcDbMaterial
  3
ObjectDBX Classes
 90
     1153
280
     0
281
     0
  0
CLASS
  1
SCALE
  2
AcDbScale
  3
ObjectDBX Classes
 90
     1153
280
     0
281
     0
  0
CLASS
  1
TABLESTYLE
  2
AcDbTableStyle
  3
ObjectDBX Classes
 90
     4095
280
     0
281
     0
  0
CLASS
  1
MLEADERSTYLE
  2
AcDbMLeaderStyle
  3
ACDB_MLEADERSTYLE_CLASS
 90
     4095
280
     0
281
     0
  0
CLASS
  1
SUN
  2
AcDbSun
  3
SCENEOE
 90
     1153
280
     0
281
     0
  0
CLASS
  1
ACDBPLACEHOLDER
  2
AcDbPlaceHolder
  3
ObjectDBX Classes
 90
        0
280
     0
281
     0
  0
CLASS
  1
LAYOUT
  2
AcDbLayout
  3
ObjectDBX Classes
 90
        0
280
     0
281
     0
  0
ENDSEC
  0
SECTION
  2
TABLES
  0
TABLE
  2
VPORT
  5
8
330
0
100
AcDbSymbolTable
 70
     1
  0
VPORT
  5
29
330
8
100
AcDbSymbolTableRecord
100
AcDbViewportTableRecord
  2
*Active
 70
     0
 10
0.0
 20
0.0
 11
1.0
 21
1.0
 12
215.9
 22
139.7
 13
0.0
 23
0.0
 14
10.0
 24
10.0
 15
10.0
 25
10.0
 16
0.0
 26
0.0
 36
1.0
 17
0.0
 27
0.0
 37
0.0
 40
279.4
 41
1.5454545455
 42
50.0
 43
0.0
 44
0.0
 50
0.0
 51
0.0
 71
     0
 72
  2000
 73
     1
 74
     3
 75
     0
 76
     0
 77
     0
 78
     0
281
     0
 65
     1
110
0.0
120
0.0
130
0.0
111
1.0
121
0.0
131
0.0
112
0.0
122
1.0
132
0.0
 79
     0
146
0.0
  0
ENDTAB
  0
TABLE
  2
LTYPE
  5
5
330
0
100
AcDbSymbolTable
 70
     6
  0
LTYPE
  5
14
330
5
100
AcDbSymbolTableRecord
100
AcDbLinetypeTableRecord
  2
ByBlock
 70
     0
  3

 72
    65
 73
     0
 40
0.0
  0
LTYPE
  5
15
330
5
100
AcDbSymbolTableRecord
100
AcDbLinetypeTableRecord
  2
ByLayer
 70
     0
  3

 72
    65
 73
     0
 40
0.0
  0
LTYPE
  5
16
330
5
100
AcDbSymbolTableRecord
100
AcDbLinetypeTableRecord
  2
Continuous
 70
     0
  3
Solid line
 72
    65
 73
     0
 40
0.0
  0
LTYPE
  5
6E
330
5
100
AcDbSymbolTableRecord
100
AcDbLinetypeTableRecord
  2
HIDDEN
 70
     0
  3
Hidden __ __ __ __ __ __ __ __ __ __ __ __ __ __
 72
    65
 73
     2
 40
1.905
 49
1.27
 74
     0
 49
-0.635
 74
     0
  0
LTYPE
  5
6F
330
5
100
AcDbSymbolTableRecord
100
AcDbLinetypeTableRecord
  2
PHANTOM
 70
     0
  3
Phantom ______  __  __  ______  __  __  ______
 72
    65
 73
     6
 40
12.7
 49
6.35
 74
     0
 49
-1.27
 74
     0
 49
1.27
 74
     0
 49
-1.27
 74
     0
 49
1.27
 74
     0
 49
-1.27
 74
     0
  0
LTYPE
  5
70
330
5
100
AcDbSymbolTableRecord
100
AcDbLinetypeTableRecord
  2
CENTER
 70
     0
  3
Center ____ _ ____ _ ____ _ ____ _ ____ _ ____
 72
    65
 73
     4
 40
10.16
 49
6.35
 74
     0
 49
-1.27
 74
     0
 49
1.27
 74
     0
 49
-1.27
 74
     0
  0
LTYPE
  5
71
330
5
100
AcDbSymbolTableRecord
100
AcDbLinetypeTableRecord
  2
CENTERX2
 70
     0
  3
Center (2x) ________  __  ________  __  _____
 72
    65
 73
     4
 40
20.32
 49
12.7
 74
     0
 49
-2.54
 74
     0
 49
2.54
 74
     0
 49
-2.54
 74
     0
  0
LTYPE
  5
72
330
5
100
AcDbSymbolTableRecord
100
AcDbLinetypeTableRecord
  2
DOT2
 70
     0
  3
Dot (.5x) ........................................
 72
    65
 73
     2
 40
0.635
 49
0.0
 74
     0
 49
-0.635
 74
     0
  0
ENDTAB
  0
TABLE
  2
LAYER
  5
2
330
0
100
AcDbSymbolTable
 70
     3
  0
LAYER
  5
10
330
2
100
AcDbSymbolTableRecord
100
AcDbLayerTableRecord
  2
0
 70
     0
 62
     7
  6
Continuous
370
    -3
390
F
  0
LAYER
  5
73
330
2
100
AcDbSymbolTableRecord
100
AcDbLayerTableRecord
  2
FRAME_&_TABLE
 70
     0
 62
     8
  6
Continuous
370
    50
390
F
  0
LAYER
  5
74
330
2
100
AcDbSymbolTableRecord
100
AcDbLayerTableRecord
  2
DIMENSIONS
 70
     0
 62
     7
  6
Continuous
370
    -3
390
F
  0
ENDTAB
  0
TABLE
  2
STYLE
  5
3
330
0
100
AcDbSymbolTable
 70
     1
  0
STYLE
  5
11
330
3
100
AcDbSymbolTableRecord
100
AcDbTextStyleTableRecord
  2
Standard
 70
     0
 40
0.0
 41
1.0
 50
0.0
 71
     0
 42
3.8805555556
  3
txt
  4

  0
ENDTAB
  0
TABLE
  2
VIEW
  5
6
330
0
100
AcDbSymbolTable
 70
     0
  0
ENDTAB
  0
TABLE
  2
UCS
  5
7
330
0
100
AcDbSymbolTable
 70
     0
  0
ENDTAB
  0
TABLE
  2
APPID
  5
9
330
0
100
AcDbSymbolTable
 70
     1
  0
APPID
  5
12
330
9
100
AcDbSymbolTableRecord
100
AcDbRegAppTableRecord
  2
ACAD
 70
     0
  0
ENDTAB
  0
TABLE
  2
DIMSTYLE
  5
A
330
0
100
AcDbSymbolTable
 70
     1
100
AcDbDimStyleTable
  0
DIMSTYLE
105
27
330
A
100
AcDbSymbolTableRecord
100
AcDbDimStyleTableRecord
  2
ISO-25
 70
     0
 41
2.5
 42
0.625
 43
3.75
 44
1.25
 73
     0
 74
     0
 77
     1
 78
     8
140
2.5
141
2.5
143
0.0393700787
147
0.625
171
     3
172
     1
178
     0
271
     2
272
     2
274
     3
278
    44
283
     0
284
     8
340
11
  0
ENDTAB
  0
TABLE
  2
BLOCK_RECORD
  5
1
330
0
100
AcDbSymbolTable
 70
     1
  0
BLOCK_RECORD
  5
1F
330
1
100
AcDbSymbolTableRecord
100
AcDbBlockTableRecord
  2
*Model_Space
340
22
  0
BLOCK_RECORD
  5
1B
330
1
100
AcDbSymbolTableRecord
100
AcDbBlockTableRecord
  2
*Paper_Space
340
1E
  0
BLOCK_RECORD
  5
23
330
1
100
AcDbSymbolTableRecord
100
AcDbBlockTableRecord
  2
*Paper_Space0
340
26
  0
ENDTAB
  0
ENDSEC
  0
SECTION
  2
BLOCKS
  0
BLOCK
  5
20
330
1F
100
AcDbEntity
  8
0
100
AcDbBlockBegin
  2
*Model_Space
 70
     0
 10
0.0
 20
0.0
 30
0.0
  3
*Model_Space
  1

  0
ENDBLK
  5
21
330
1F
100
AcDbEntity
  8
0
100
AcDbBlockEnd
  0
BLOCK
  5
1C
330
1B
100
AcDbEntity
 67
     1
  8
0
100
AcDbBlockBegin
  2
*Paper_Space
 70
     0
 10
0.0
 20
0.0
 30
0.0
  3
*Paper_Space
  1

  0
ENDBLK
  5
1D
330
1B
100
AcDbEntity
 67
     1
  8
0
100
AcDbBlockEnd
  0
BLOCK
  5
24
330
23
100
AcDbEntity
  8
0
100
AcDbBlockBegin
  2
*Paper_Space0
 70
     0
 10
0.0
 20
0.0
 30
0.0
  3
*Paper_Space0
  1

  0
ENDBLK
  5
25
330
23
100
AcDbEntity
  8
0
100
AcDbBlockEnd
  0
ENDSEC
  0
SECTION
  2
ENTITIES
  0
ARC
  5
75
330
1F
100
AcDbEntity
  8
0
  6
Continuous
 62
     7
370
    25
100
AcDbCircle
 10
1106.5268421004
 20
223.2914473746
 30
0.0
 40
12.50000000000023
100
AcDbArc
 50
0.0
 51
180.0
  0
LINE
  5
76
330
1F
100
AcDbEntity
  8
0
  6
Continuous
 62
     7
370
    25
100
AcDbLine
 10
1094.0268421004
 20
223.2914473746
 30
0.0
 11
1094.0268421004
 21
173.2914473746
 31
0.0
  0
LINE
  5
77
330
1F
100
AcDbEntity
  8
0
  6
Continuous
 62
     7
370
    25
100
AcDbLine
 10
1119.0268421004
 20
173.2914473746
 30
0.0
 11
1119.0268421004
 21
223.2914473746
 31
0.0
  0
LINE
  5
78
330
1F
100
AcDbEntity
  8
0
  6
Continuous
 62
     7
370
    25
100
AcDbLine
 10
1119.0268421004
 20
113.2914473746
 30
0.0
 11
1119.0268421004
 21
173.2914473746
 31
0.0
  0
LINE
  5
79
330
1F
100
AcDbEntity
  8
0
  6
Continuous
 62
     7
370
    25
100
AcDbLine
 10
1094.0268421004
 20
173.2914473746
 30
0.0
 11
1094.0268421004
 21
113.2914473746
 31
0.0
  0
ARC
  5
7A
330
1F
100
AcDbEntity
  8
0
  6
Continuous
 62
     7
370
    25
100
AcDbCircle
 10
1106.5268421004
 20
63.2914473746
 30
0.0
 40
12.50000000000023
100
AcDbArc
 50
180.0
 51
0.0
  0
LINE
  5
7B
330
1F
100
AcDbEntity
  8
0
  6
Continuous
 62
     7
370
    25
100
AcDbLine
 10
1094.0268421004
 20
113.2914473746
 30
0.0
 11
1094.0268421004
 21
63.2914473746
 31
0.0
  0
LINE
  5
7C
330
1F
100
AcDbEntity
  8
0
  6
Continuous
 62
     7
370
    25
100
AcDbLine
 10
1119.0268421004
 20
63.2914473746
 30
0.0
 11
1119.0268421004
 21
113.2914473746
 31
0.0
  0
LINE
  5
7D
330
1F
100
AcDbEntity
  8
0
  6
Continuous
 62
     7
370
    25
100
AcDbLine
 10
-667.9731578996
 20
113.2914473746
 30
0.0
 11
-667.9731578996
 21
173.2914473746
 31
0.0
  0
LINE
  5
7E
330
1F
100
AcDbEntity
  8
0
  6
Continuous
 62
     7
370
    25
100
AcDbLine
 10
-692.9731578996
 20
173.2914473746
 30
0.0
 11
-692.9731578996
 21
113.2914473746
 31
0.0
  0
ARC
  5
7F
330
1F
100
AcDbEntity
  8
0
  6
Continuous
 62
     7
370
    25
100
AcDbCircle
 10
-680.4731578996
 20
223.2914473746
 30
0.0
 40
12.50000000000011
100
AcDbArc
 50
0.0
 51
180.0
  0
LINE
  5
80
330
1F
100
AcDbEntity
  8
0
  6
Continuous
 62
     7
370
    25
100
AcDbLine
 10
-692.9731578996
 20
223.2914473746
 30
0.0
 11
-692.9731578996
 21
173.2914473746
 31
0.0
  0
LINE
  5
81
330
1F
100
AcDbEntity
  8
0
  6
Continuous
 62
     7
370
    25
100
AcDbLine
 10
-667.9731578996
 20
173.2914473746
 30
0.0
 11
-667.9731578996
 21
223.2914473746
 31
0.0
  0
ARC
  5
82
330
1F
100
AcDbEntity
  8
0
  6
Continuous
 62
     7
370
    25
100
AcDbCircle
 10
-680.4731578996
 20
63.2914473746
 30
0.0
 40
12.5
100
AcDbArc
 50
180.0
 51
0.0
  0
LINE
  5
83
330
1F
100
AcDbEntity
  8
0
  6
Continuous
 62
     7
370
    25
100
AcDbLine
 10
-692.9731578996
 20
113.2914473746
 30
0.0
 11
-692.9731578996
 21
63.2914473746
 31
0.0
  0
LINE
  5
84
330
1F
100
AcDbEntity
  8
0
  6
Continuous
 62
     7
370
    25
100
AcDbLine
 10
-667.9731578996
 20
63.2914473746
 30
0.0
 11
-667.9731578996
 21
113.2914473746
 31
0.0
  0
CIRCLE
  5
85
330
1F
100
AcDbEntity
  8
0
  6
Continuous
 62
     7
370
    25
100
AcDbCircle
 10
-713.9731578996
 20
117.2914473746
 30
0.0
 40
7.099999999999994
  0
CIRCLE
  5
86
330
1F
100
AcDbEntity
  8
0
  6
Continuous
 62
     7
370
    25
100
AcDbCircle
 10
1140.0268421004
 20
169.2914473746
 30
0.0
 40
7.099999999999994
  0
CIRCLE
  5
87
330
1F
100
AcDbEntity
  8
0
  6
Continuous
 62
     7
370
    25
100
AcDbCircle
 10
-646.9731578996
 20
169.2914473746
 30
0.0
 40
7.099999999999994
  0
CIRCLE
  5
88
330
1F
100
AcDbEntity
  8
0
  6
Continuous
 62
     7
370
    25
100
AcDbCircle
 10
1073.0268421004
 20
117.2914473746
 30
0.0
 40
7.099999999999994
  0
ARC
  5
89
330
1F
100
AcDbEntity
  8
0
  6
Continuous
 62
     7
370
    25
100
AcDbCircle
 10
212.8991497927
 20
-40.2085526254
 30
0.0
 40
19.87230769230769
100
AcDbArc
 50
180.0
 51
226.9233678463
  0
ARC
  5
8A
330
1F
100
AcDbEntity
  8
0
  6
Continuous
 62
     7
370
    25
100
AcDbCircle
 10
213.154534408
 20
-40.2085526254
 30
0.0
 40
19.87230769230769
100
AcDbArc
 50
313.0766321537
 51
0.0
  0
LINE
  5
8B
330
1F
100
AcDbEntity
  8
0
  6
Continuous
 62
     7
370
    25
100
AcDbLine
 10
193.0268421004
 20
-38.2085526254
 30
0.0
 11
193.0268421004
 21
-40.2085526254
 31
0.0
  0
LINE
  5
8C
330
1F
100
AcDbEntity
  8
0
  6
Continuous
 62
     7
370
    25
100
AcDbLine
 10
233.0268421004
 20
-40.2085526254
 30
0.0
 11
233.0268421004
 21
-38.2085526254
 31
0.0
  0
ARC
  5
8D
330
1F
100
AcDbEntity
  8
0
  6
Continuous
 62
     7
370
    25
100
AcDbCircle
 10
199.9268421004
 20
-55.3389439438
 30
0.0
 40
0.5999999999999807
100
AcDbArc
 50
180.0
 51
243.6246146768
  0
ARC
  5
8E
330
1F
100
AcDbEntity
  8
0
  6
Continuous
 62
     7
370
    25
100
AcDbCircle
 10
226.1268421004
 20
-55.3389439438
 30
0.0
 40
0.5999999999999943
100
AcDbArc
 50
296.3753853232
 51
0.0
  0
LINE
  5
8F
330
1F
100
AcDbEntity
  8
0
  6
Continuous
 62
     7
370
    25
100
AcDbLine
 10
199.3268421004
 20
-54.7240986683
 30
0.0
 11
199.3268421004
 21
-55.3389439438
 31
0.0
  0
LINE
  5
90
330
1F
100
AcDbEntity
  8
0
  6
Continuous
 62
     7
370
    25
100
AcDbLine
 10
226.7268421004
 20
-55.3389439438
 30
0.0
 11
226.7268421004
 21
-54.7240986683
 31
0.0
  0
ARC
  5
91
330
1F
100
AcDbEntity
  8
0
  6
Continuous
 62
     7
370
    25
100
AcDbCircle
 10
213.0268421004
 20
-28.9206738376
 30
0.0
 40
30.08787878787879
100
AcDbArc
 50
243.6246146768
 51
296.3753853232
  0
ARC
  5
92
330
1F
100
AcDbEntity
  8
0
  6
Continuous
 62
     7
370
    25
100
AcDbCircle
 10
213.8228947319
 20
325.7914473746
 30
0.0
 40
16.29605263157896
100
AcDbArc
 50
135.1144932694
 51
180.0
  0
ARC
  5
93
330
1F
100
AcDbEntity
  8
0
  6
Continuous
 62
     7
370
    25
100
AcDbCircle
 10
212.2307894688
 20
325.7914473746
 30
0.0
 40
16.29605263157896
100
AcDbArc
 50
0.0
 51
44.8855067306
  0
LINE
  5
94
330
1F
100
AcDbEntity
  8
0
  6
Continuous
 62
     7
370
    25
100
AcDbLine
 10
228.5268421004
 20
324.7914473746
 30
0.0
 11
228.5268421004
 21
325.7914473746
 31
0.0
  0
LINE
  5
95
330
1F
100
AcDbEntity
  8
0
  6
Continuous
 62
     7
370
    25
100
AcDbLine
 10
197.5268421004
 20
325.7914473746
 30
0.0
 11
197.5268421004
 21
324.7914473746
 31
0.0
  0
LINE
  5
96
330
1F
100
AcDbEntity
  8
0
  6
Continuous
 62
     7
370
    25
100
AcDbLine
 10
223.7768421004
 20
337.2914473746
 30
0.0
 11
223.7768421004
 21
337.8765973935
 31
0.0
  0
LINE
  5
97
330
1F
100
AcDbEntity
  8
0
  6
Continuous
 62
     7
370
    25
100
AcDbLine
 10
202.2768421004
 20
337.8765973935
 30
0.0
 11
202.2768421004
 21
337.2914473746
 31
0.0
  0
ARC
  5
98
330
1F
100
AcDbEntity
  8
0
  6
Continuous
 62
     7
370
    25
100
AcDbCircle
 10
223.1768421004
 20
337.8765973935
 30
0.0
 40
0.600000000000021
100
AcDbArc
 50
0.0
 51
69.724946748
  0
ARC
  5
99
330
1F
100
AcDbEntity
  8
0
  6
Continuous
 62
     7
370
    25
100
AcDbCircle
 10
202.8768421004
 20
337.8765973935
 30
0.0
 40
0.600000000000021
100
AcDbArc
 50
110.275053252
 51
180.0
  0
ARC
  5
9A
330
1F
100
AcDbEntity
  8
0
  6
Continuous
 62
     7
370
    25
100
AcDbCircle
 10
213.0268421004
 20
310.4008223746
 30
0.0
 40
29.89062499999999
100
AcDbArc
 50
69.724946748
 51
110.275053252
  0
ARC
  5
9B
330
1F
100
AcDbEntity
  8
0
  6
Continuous
 62
     7
370
    25
100
AcDbCircle
 10
222.9268421004
 20
257.5414473746
 30
0.0
 40
1.25
100
AcDbArc
 50
306.8698976458
 51
90.0
  0
ARC
  5
9C
330
1F
100
AcDbEntity
  8
0
  6
Continuous
 62
     7
370
    25
100
AcDbCircle
 10
203.1268421004
 20
257.5414473746
 30
0.0
 40
1.25
100
AcDbArc
 50
90.0
 51
233.1301023542
  0
ARC
  5
9D
330
1F
100
AcDbEntity
  8
0
  6
Continuous
 62
     7
370
    25
100
AcDbCircle
 10
213.0268421004
 20
270.7414473746
 30
0.0
 40
17.74999999999999
100
AcDbArc
 50
233.1301023542
 51
306.8698976458
  0
ARC
  5
9E
330
1F
100
AcDbEntity
  8
0
  6
Continuous
 62
     7
370
    25
100
AcDbCircle
 10
203.1268421004
 20
29.0414473746
 30
0.0
 40
1.249999999999983
100
AcDbArc
 50
126.8698976458
 51
270.0
  0
ARC
  5
9F
330
1F
100
AcDbEntity
  8
0
  6
Continuous
 62
     7
370
    25
100
AcDbCircle
 10
222.9268421004
 20
29.0414473746
 30
0.0
 40
1.249999999999983
100
AcDbArc
 50
270.0
 51
53.1301023542
  0
ARC
  5
A0
330
1F
100
AcDbEntity
  8
0
  6
Continuous
 62
     7
370
    25
100
AcDbCircle
 10
213.0268421004
 20
15.8414473746
 30
0.0
 40
17.75000000000002
100
AcDbArc
 50
53.1301023542
 51
126.8698976458
  0
LINE
  5
A1
330
1F
100
AcDbEntity
  8
0
  6
Continuous
 62
     7
370
    25
100
AcDbLine
 10
188.0268421004
 20
253.2914473746
 30
0.0
 11
188.0268421004
 21
188.2914473746
 31
0.0
  0
LINE
  5
A2
330
1F
100
AcDbEntity
  8
0
  6
Continuous
 62
     7
370
    25
100
AcDbLine
 10
188.0268421004
 20
98.2914473746
 30
0.0
 11
188.0268421004
 21
33.2914473746
 31
0.0
  0
LINE
  5
A3
330
1F
100
AcDbEntity
  8
0
  6
Continuous
 62
     7
370
    25
100
AcDbLine
 10
238.0268421004
 20
33.2914473746
 30
0.0
 11
238.0268421004
 21
98.2914473746
 31
0.0
  0
LINE
  5
A4
330
1F
100
AcDbEntity
  8
0
  6
Continuous
 62
     7
370
    25
100
AcDbLine
 10
238.0268421004
 20
188.2914473746
 30
0.0
 11
238.0268421004
 21
253.2914473746
 31
0.0
  0
LINE
  5
A5
330
1F
100
AcDbEntity
  8
0
  6
Continuous
 62
     7
370
    25
100
AcDbLine
 10
-1031.5375610366
 20
-1038.2085526254
 30
0.0
 11
1457.5912452373
 21
-1038.2085526254
 31
0.0
  0
ARC
  5
A6
330
1F
100
AcDbEntity
  8
0
  6
Continuous
 62
     7
370
    25
100
AcDbCircle
 10
-1031.5375610366
 20
-38.2085526254
 30
0.0
 40
1000.0
100
AcDbArc
 50
180.0
 51
270.0
  0
LINE
  5
A7
330
1F
100
AcDbEntity
  8
0
  6
Continuous
 62
     7
370
    25
100
AcDbLine
 10
1457.5912452373
 20
1324.7914473746
 30
0.0
 11
-1031.5375610366
 21
1324.7914473746
 31
0.0
  0
ARC
  5
A8
330
1F
100
AcDbEntity
  8
0
  6
Continuous
 62
     7
370
    25
100
AcDbCircle
 10
1457.5912452373
 20
324.7914473746
 30
0.0
 40
1000.000000000001
100
AcDbArc
 50
0.0
 51
90.0
  0
LINE
  5
A9
330
1F
100
AcDbEntity
  8
0
  6
Continuous
 62
     7
370
    25
100
AcDbLine
 10
2457.5912452373
 20
-38.2085526254
 30
0.0
 11
2457.5912452373
 21
324.7914473746
 31
0.0
  0
ARC
  5
AA
330
1F
100
AcDbEntity
  8
0
  6
Continuous
 62
     7
370
    25
100
AcDbCircle
 10
1457.5912452373
 20
-38.2085526254
 30
0.0
 40
1000.0
100
AcDbArc
 50
270.0
 51
0.0
  0
ARC
  5
AB
330
1F
100
AcDbEntity
  8
0
  6
Continuous
 62
     7
370
    25
100
AcDbCircle
 10
-1031.5375610366
 20
324.7914473746
 30
0.0
 40
1000.0
100
AcDbArc
 50
90.0
 51
180.0
  0
LINE
  5
AC
330
1F
100
AcDbEntity
  8
0
  6
Continuous
 62
     7
370
    25
100
AcDbLine
 10
-2031.5375610366
 20
324.7914473746
 30
0.0
 11
-2031.5375610366
 21
-38.2085526254
 31
0.0
  0
ARC
  5
AD
330
1F
100
AcDbEntity
  8
0
  6
Continuous
 62
     7
370
    25
100
AcDbCircle
 10
1067.5268421004
 20
111.7914473746
 30
0.0
 40
10.0
100
AcDbArc
 50
180.0
 51
270.0
  0
ARC
  5
AE
330
1F
100
AcDbEntity
  8
0
  6
Continuous
 62
     7
370
    25
100
AcDbCircle
 10
1145.5268421004
 20
174.7914473746
 30
0.0
 40
10.0
100
AcDbArc
 50
0.0
 51
90.0
  0
LINE
  5
AF
330
1F
100
AcDbEntity
  8
0
  6
Continuous
 62
     7
370
    25
100
AcDbLine
 10
1155.5268421004
 20
111.7914473746
 30
0.0
 11
1155.5268421004
 21
174.7914473746
 31
0.0
  0
ARC
  5
B0
330
1F
100
AcDbEntity
  8
0
  6
Continuous
 62
     7
370
    25
100
AcDbCircle
 10
1145.5268421004
 20
111.7914473746
 30
0.0
 40
10.0
100
AcDbArc
 50
270.0
 51
0.0
  0
LINE
  5
B1
330
1F
100
AcDbEntity
  8
0
  6
Continuous
 62
     7
370
    25
100
AcDbLine
 10
1067.5268421004
 20
101.7914473746
 30
0.0
 11
1094.0268421004
 21
101.7914473746
 31
0.0
  0
LINE
  5
B2
330
1F
100
AcDbEntity
  8
0
  6
Continuous
 62
     7
370
    25
100
AcDbLine
 10
1119.0268421004
 20
101.7914473746
 30
0.0
 11
1145.5268421004
 21
101.7914473746
 31
0.0
  0
LINE
  5
B3
330
1F
100
AcDbEntity
  8
0
  6
Continuous
 62
     7
370
    25
100
AcDbLine
 10
1078.5268421004
 20
122.7914473746
 30
0.0
 11
1077.5168309645
 21
122.7914473746
 31
0.0
  0
LINE
  5
B4
330
1F
100
AcDbEntity
  8
0
  6
Continuous
 62
     7
370
    25
100
AcDbLine
 10
1068.5368532362
 20
122.7914473746
 30
0.0
 11
1067.5268421004
 21
122.7914473746
 31
0.0
  0
LINE
  5
B5
330
1F
100
AcDbEntity
  8
0
  6
Continuous
 62
     7
370
    25
100
AcDbLine
 10
1067.5268421004
 20
122.7914473746
 30
0.0
 11
1067.5268421004
 21
121.7814362387
 31
0.0
  0
LINE
  5
B6
330
1F
100
AcDbEntity
  8
0
  6
Continuous
 62
     7
370
    25
100
AcDbLine
 10
1067.5268421004
 20
112.8014585104
 30
0.0
 11
1067.5268421004
 21
111.7914473746
 31
0.0
  0
LINE
  5
B7
330
1F
100
AcDbEntity
  8
0
  6
Continuous
 62
     7
370
    25
100
AcDbLine
 10
1067.5268421004
 20
111.7914473746
 30
0.0
 11
1068.5368532362
 21
111.7914473746
 31
0.0
  0
LINE
  5
B8
330
1F
100
AcDbEntity
  8
0
  6
Continuous
 62
     7
370
    25
100
AcDbLine
 10
1077.5168309645
 20
111.7914473746
 30
0.0
 11
1078.5268421004
 21
111.7914473746
 31
0.0
  0
LINE
  5
B9
330
1F
100
AcDbEntity
  8
0
  6
Continuous
 62
     7
370
    25
100
AcDbLine
 10
1078.5268421004
 20
111.7914473746
 30
0.0
 11
1078.5268421004
 21
112.8014585104
 31
0.0
  0
LINE
  5
BA
330
1F
100
AcDbEntity
  8
0
  6
Continuous
 62
     7
370
    25
100
AcDbLine
 10
1078.5268421004
 20
121.7814362387
 30
0.0
 11
1078.5268421004
 21
122.7914473746
 31
0.0
  0
LINE
  5
BB
330
1F
100
AcDbEntity
  8
0
  6
Continuous
 62
     7
370
    25
100
AcDbLine
 10
1145.5268421004
 20
184.7914473746
 30
0.0
 11
1119.0268421004
 21
184.7914473746
 31
0.0
  0
LINE
  5
BC
330
1F
100
AcDbEntity
  8
0
  6
Continuous
 62
     7
370
    25
100
AcDbLine
 10
1094.0268421004
 20
184.7914473746
 30
0.0
 11
1067.5268421004
 21
184.7914473746
 31
0.0
  0
LINE
  5
BD
330
1F
100
AcDbEntity
  8
0
  6
Continuous
 62
     7
370
    25
100
AcDbLine
 10
1134.5268421004
 20
174.7914473746
 30
0.0
 11
1134.5268421004
 21
173.7814362387
 31
0.0
  0
LINE
  5
BE
330
1F
100
AcDbEntity
  8
0
  6
Continuous
 62
     7
370
    25
100
AcDbLine
 10
1134.5268421004
 20
164.8014585104
 30
0.0
 11
1134.5268421004
 21
163.7914473746
 31
0.0
  0
LINE
  5
BF
330
1F
100
AcDbEntity
  8
0
  6
Continuous
 62
     7
370
    25
100
AcDbLine
 10
1145.5268421004
 20
174.7914473746
 30
0.0
 11
1144.5168309645
 21
174.7914473746
 31
0.0
  0
LINE
  5
C0
330
1F
100
AcDbEntity
  8
0
  6
Continuous
 62
     7
370
    25
100
AcDbLine
 10
1135.5368532362
 20
174.7914473746
 30
0.0
 11
1134.5268421004
 21
174.7914473746
 31
0.0
  0
LINE
  5
C1
330
1F
100
AcDbEntity
  8
0
  6
Continuous
 62
     7
370
    25
100
AcDbLine
 10
1057.5268421004
 20
174.7914473746
 30
0.0
 11
1057.5268421004
 21
111.7914473746
 31
0.0
  0
LINE
  5
C2
330
1F
100
AcDbEntity
  8
0
  6
Continuous
 62
     7
370
    25
100
AcDbLine
 10
1145.5268421004
 20
163.7914473746
 30
0.0
 11
1145.5268421004
 21
164.8014585104
 31
0.0
  0
LINE
  5
C3
330
1F
100
AcDbEntity
  8
0
  6
Continuous
 62
     7
370
    25
100
AcDbLine
 10
1145.5268421004
 20
173.7814362387
 30
0.0
 11
1145.5268421004
 21
174.7914473746
 31
0.0
  0
LINE
  5
C4
330
1F
100
AcDbEntity
  8
0
  6
Continuous
 62
     7
370
    25
100
AcDbLine
 10
1134.5268421004
 20
163.7914473746
 30
0.0
 11
1135.5368532362
 21
163.7914473746
 31
0.0
  0
LINE
  5
C5
330
1F
100
AcDbEntity
  8
0
  6
Continuous
 62
     7
370
    25
100
AcDbLine
 10
1144.5168309645
 20
163.7914473746
 30
0.0
 11
1145.5268421004
 21
163.7914473746
 31
0.0
  0
ARC
  5
C6
330
1F
100
AcDbEntity
  8
0
  6
Continuous
 62
     7
370
    25
100
AcDbCircle
 10
1067.5268421004
 20
174.7914473746
 30
0.0
 40
10.0
100
AcDbArc
 50
90.0
 51
180.0
  0
ARC
  5
C7
330
1F
100
AcDbEntity
  8
0
  6
Continuous
 62
     7
370
    25
100
AcDbCircle
 10
-719.4731578996
 20
111.7914473746
 30
0.0
 40
10.0
100
AcDbArc
 50
180.0
 51
270.0
  0
ARC
  5
C8
330
1F
100
AcDbEntity
  8
0
  6
Continuous
 62
     7
370
    25
100
AcDbCircle
 10
-719.4731578996
 20
174.7914473746
 30
0.0
 40
10.00000000000003
100
AcDbArc
 50
90.0
 51
180.0
  0
LINE
  5
C9
330
1F
100
AcDbEntity
  8
0
  6
Continuous
 62
     7
370
    25
100
AcDbLine
 10
-641.4731578996
 20
184.7914473746
 30
0.0
 11
-667.9731578996
 21
184.7914473746
 31
0.0
  0
LINE
  5
CA
330
1F
100
AcDbEntity
  8
0
  6
Continuous
 62
     7
370
    25
100
AcDbLine
 10
-692.9731578996
 20
184.7914473746
 30
0.0
 11
-719.4731578996
 21
184.7914473746
 31
0.0
  0
ARC
  5
CB
330
1F
100
AcDbEntity
  8
0
  6
Continuous
 62
     7
370
    25
100
AcDbCircle
 10
-641.4731578996
 20
174.7914473746
 30
0.0
 40
10.00000000000003
100
AcDbArc
 50
0.0
 51
90.0
  0
LINE
  5
CC
330
1F
100
AcDbEntity
  8
0
  6
Continuous
 62
     7
370
    25
100
AcDbLine
 10
-631.4731578996
 20
111.7914473746
 30
0.0
 11
-631.4731578996
 21
174.7914473746
 31
0.0
  0
ARC
  5
CD
330
1F
100
AcDbEntity
  8
0
  6
Continuous
 62
     7
370
    25
100
AcDbCircle
 10
-641.4731578996
 20
111.7914473746
 30
0.0
 40
10.0
100
AcDbArc
 50
270.0
 51
0.0
  0
LINE
  5
CE
330
1F
100
AcDbEntity
  8
0
  6
Continuous
 62
     7
370
    25
100
AcDbLine
 10
-719.4731578996
 20
101.7914473746
 30
0.0
 11
-692.9731578996
 21
101.7914473746
 31
0.0
  0
LINE
  5
CF
330
1F
100
AcDbEntity
  8
0
  6
Continuous
 62
     7
370
    25
100
AcDbLine
 10
-667.9731578996
 20
101.7914473746
 30
0.0
 11
-641.4731578996
 21
101.7914473746
 31
0.0
  0
LINE
  5
D0
330
1F
100
AcDbEntity
  8
0
  6
Continuous
 62
     7
370
    25
100
AcDbLine
 10
-641.4731578996
 20
174.7914473746
 30
0.0
 11
-642.4831690355
 21
174.7914473746
 31
0.0
  0
LINE
  5
D1
330
1F
100
AcDbEntity
  8
0
  6
Continuous
 62
     7
370
    25
100
AcDbLine
 10
-651.4631467638
 20
174.7914473746
 30
0.0
 11
-652.4731578996
 21
174.7914473746
 31
0.0
  0
LINE
  5
D2
330
1F
100
AcDbEntity
  8
0
  6
Continuous
 62
     7
370
    25
100
AcDbLine
 10
-652.4731578996
 20
174.7914473746
 30
0.0
 11
-652.4731578996
 21
173.7814362387
 31
0.0
  0
LINE
  5
D3
330
1F
100
AcDbEntity
  8
0
  6
Continuous
 62
     7
370
    25
100
AcDbLine
 10
-652.4731578996
 20
164.8014585104
 30
0.0
 11
-652.4731578996
 21
163.7914473746
 31
0.0
  0
LINE
  5
D4
330
1F
100
AcDbEntity
  8
0
  6
Continuous
 62
     7
370
    25
100
AcDbLine
 10
-708.4731578996
 20
122.7914473746
 30
0.0
 11
-709.4831690355
 21
122.7914473746
 31
0.0
  0
LINE
  5
D5
330
1F
100
AcDbEntity
  8
0
  6
Continuous
 62
     7
370
    25
100
AcDbLine
 10
-718.4631467638
 20
122.7914473746
 30
0.0
 11
-719.4731578996
 21
122.7914473746
 31
0.0
  0
LINE
  5
D6
330
1F
100
AcDbEntity
  8
0
  6
Continuous
 62
     7
370
    25
100
AcDbLine
 10
-719.4731578996
 20
122.7914473746
 30
0.0
 11
-719.4731578996
 21
121.7814362387
 31
0.0
  0
LINE
  5
D7
330
1F
100
AcDbEntity
  8
0
  6
Continuous
 62
     7
370
    25
100
AcDbLine
 10
-719.4731578996
 20
112.8014585104
 30
0.0
 11
-719.4731578996
 21
111.7914473746
 31
0.0
  0
LINE
  5
D8
330
1F
100
AcDbEntity
  8
0
  6
Continuous
 62
     7
370
    25
100
AcDbLine
 10
-719.4731578996
 20
111.7914473746
 30
0.0
 11
-718.4631467638
 21
111.7914473746
 31
0.0
  0
LINE
  5
D9
330
1F
100
AcDbEntity
  8
0
  6
Continuous
 62
     7
370
    25
100
AcDbLine
 10
-709.4831690355
 20
111.7914473746
 30
0.0
 11
-708.4731578996
 21
111.7914473746
 31
0.0
  0
LINE
  5
DA
330
1F
100
AcDbEntity
  8
0
  6
Continuous
 62
     7
370
    25
100
AcDbLine
 10
-708.4731578996
 20
111.7914473746
 30
0.0
 11
-708.4731578996
 21
112.8014585104
 31
0.0
  0
LINE
  5
DB
330
1F
100
AcDbEntity
  8
0
  6
Continuous
 62
     7
370
    25
100
AcDbLine
 10
-708.4731578996
 20
121.7814362387
 30
0.0
 11
-708.4731578996
 21
122.7914473746
 31
0.0
  0
LINE
  5
DC
330
1F
100
AcDbEntity
  8
0
  6
Continuous
 62
     7
370
    25
100
AcDbLine
 10
-729.4731578996
 20
174.7914473746
 30
0.0
 11
-729.4731578996
 21
111.7914473746
 31
0.0
  0
LINE
  5
DD
330
1F
100
AcDbEntity
  8
0
  6
Continuous
 62
     7
370
    25
100
AcDbLine
 10
-652.4731578996
 20
163.7914473746
 30
0.0
 11
-651.4631467638
 21
163.7914473746
 31
0.0
  0
LINE
  5
DE
330
1F
100
AcDbEntity
  8
0
  6
Continuous
 62
     7
370
    25
100
AcDbLine
 10
-642.4831690355
 20
163.7914473746
 30
0.0
 11
-641.4731578996
 21
163.7914473746
 31
0.0
  0
LINE
  5
DF
330
1F
100
AcDbEntity
  8
0
  6
Continuous
 62
     7
370
    25
100
AcDbLine
 10
-641.4731578996
 20
163.7914473746
 30
0.0
 11
-641.4731578996
 21
164.8014585104
 31
0.0
  0
LINE
  5
E0
330
1F
100
AcDbEntity
  8
0
  6
Continuous
 62
     7
370
    25
100
AcDbLine
 10
-641.4731578996
 20
173.7814362387
 30
0.0
 11
-641.4731578996
 21
174.7914473746
 31
0.0
  0
CIRCLE
  5
E1
330
1F
100
AcDbEntity
  8
0
  6
Continuous
 62
     7
370
    25
100
AcDbCircle
 10
-713.9731578996
 20
117.2914473746
 30
0.0
 40
6.637921400061387
  0
CIRCLE
  5
E2
330
1F
100
AcDbEntity
  8
0
  6
Continuous
 62
     7
370
    25
100
AcDbCircle
 10
1140.0268421004
 20
169.2914473746
 30
0.0
 40
6.637921400061401
  0
CIRCLE
  5
E3
330
1F
100
AcDbEntity
  8
0
  6
Continuous
 62
     7
370
    25
100
AcDbCircle
 10
-646.9731578996
 20
169.2914473746
 30
0.0
 40
6.637921400061401
  0
CIRCLE
  5
E4
330
1F
100
AcDbEntity
  8
0
  6
Continuous
 62
     7
370
    25
100
AcDbCircle
 10
1073.0268421004
 20
117.2914473746
 30
0.0
 40
6.637921400061387
  0
ARC
  5
E5
330
1F
100
AcDbEntity
  8
0
  6
Continuous
 62
     7
370
    25
100
AcDbCircle
 10
1368.0268421004
 20
158.2914473746
 30
0.0
 40
2.25
100
AcDbArc
 50
300.0
 51
360.0
  0
ARC
  5
E6
330
1F
100
AcDbEntity
  8
0
  6
Continuous
 62
     7
370
    25
100
AcDbCircle
 10
1368.9268421004
 20
156.7326016478
 30
0.0
 40
0.4500000000000848
100
AcDbArc
 50
300.0
 51
16.6582417727
  0
ARC
  5
E7
330
1F
100
AcDbEntity
  8
0
  6
Continuous
 62
     7
370
    25
100
AcDbCircle
 10
1370.1124062971
 20
157.0873463242
 30
0.0
 40
0.7875000000000785
100
AcDbArc
 50
103.3417582272
 51
196.6582417728
  0
ARC
  5
E8
330
1F
100
AcDbEntity
  8
0
  6
Continuous
 62
     7
370
    25
100
AcDbCircle
 10
1369.8268421004
 20
158.2914473746
 30
0.0
 40
0.450000000000131
100
AcDbArc
 50
283.3417582272
 51
360.0
  0
ARC
  5
E9
330
1F
100
AcDbEntity
  8
0
  6
Continuous
 62
     7
370
    25
100
AcDbCircle
 10
1368.0268421004
 20
158.2914473746
 30
0.0
 40
2.250000000000062
100
AcDbArc
 50
180.0
 51
240.0
  0
ARC
  5
EA
330
1F
100
AcDbEntity
  8
0
  6
Continuous
 62
     7
370
    25
100
AcDbCircle
 10
1367.1268421004
 20
156.7326016478
 30
0.0
 40
0.4500000000003065
100
AcDbArc
 50
163.3417582273
 51
240.0
  0
ARC
  5
EB
330
1F
100
AcDbEntity
  8
0
  6
Continuous
 62
     7
370
    25
100
AcDbCircle
 10
1366.2268421004
 20
158.2914473746
 30
0.0
 40
0.4499999999998181
100
AcDbArc
 50
180.0
 51
256.6582417728
  0
ARC
  5
EC
330
1F
100
AcDbEntity
  8
0
  6
Continuous
 62
     7
370
    25
100
AcDbCircle
 10
1365.9412779036
 20
157.0873463242
 30
0.0
 40
0.7875000000002127
100
AcDbArc
 50
343.3417582272
 51
76.6582417728
  0
ARC
  5
ED
330
1F
100
AcDbEntity
  8
0
  6
Continuous
 62
     7
370
    25
100
AcDbCircle
 10
1368.0268421004
 20
158.2914473746
 30
0.0
 40
2.250000000000135
100
AcDbArc
 50
120.0
 51
180.0
  0
ARC
  5
EE
330
1F
100
AcDbEntity
  8
0
  6
Continuous
 62
     7
370
    25
100
AcDbCircle
 10
1367.1268421004
 20
159.8502931014
 30
0.0
 40
0.4499999999999892
100
AcDbArc
 50
120.0
 51
196.6582417728
  0
ARC
  5
EF
330
1F
100
AcDbEntity
  8
0
  6
Continuous
 62
     7
370
    25
100
AcDbCircle
 10
1365.9412779036
 20
159.495548425
 30
0.0
 40
0.7875000000001602
100
AcDbArc
 50
283.3417582272
 51
16.6582417728
  0
ARC
  5
F0
330
1F
100
AcDbEntity
  8
0
  6
Continuous
 62
     7
370
    25
100
AcDbCircle
 10
1366.2268421004
 20
158.2914473746
 30
0.0
 40
0.4499999999999679
100
AcDbArc
 50
103.3417582272
 51
180.0
  0
ARC
  5
F1
330
1F
100
AcDbEntity
  8
0
  6
Continuous
 62
     7
370
    25
100
AcDbCircle
 10
1368.0268421004
 20
158.2914473746
 30
0.0
 40
2.250000000000037
100
AcDbArc
 50
360.0
 51
60.0
  0
ARC
  5
F2
330
1F
100
AcDbEntity
  8
0
  6
Continuous
 62
     7
370
    25
100
AcDbCircle
 10
1368.0268421004
 20
158.2914473746
 30
0.0
 40
2.250000000000135
100
AcDbArc
 50
60.0
 51
120.0
  0
ARC
  5
F3
330
1F
100
AcDbEntity
  8
0
  6
Continuous
 62
     7
370
    25
100
AcDbCircle
 10
1368.0268421004
 20
158.2914473746
 30
0.0
 40
2.250000000000062
100
AcDbArc
 50
240.0
 51
300.0
  0
CIRCLE
  5
F4
330
1F
100
AcDbEntity
  8
0
  6
Continuous
 62
     7
370
    25
100
AcDbCircle
 10
1368.0268421004
 20
158.2914473746
 30
0.0
 40
3.849999999999909
  0
ARC
  5
F5
330
1F
100
AcDbEntity
  8
0
  6
Continuous
 62
     7
370
    25
100
AcDbCircle
 10
1368.9268421004
 20
159.8502931014
 30
0.0
 40
0.4500000000002233
100
AcDbArc
 50
343.3417582273
 51
60.0
  0
ARC
  5
F6
330
1F
100
AcDbEntity
  8
0
  6
Continuous
 62
     7
370
    25
100
AcDbCircle
 10
1369.8268421004
 20
158.2914473746
 30
0.0
 40
0.4499999999998573
100
AcDbArc
 50
360.0
 51
76.6582417728
  0
ARC
  5
F7
330
1F
100
AcDbEntity
  8
0
  6
Continuous
 62
     7
370
    25
100
AcDbCircle
 10
1370.1124062971
 20
159.495548425
 30
0.0
 40
0.7875000000001602
100
AcDbArc
 50
163.3417582272
 51
256.6582417728
  0
ARC
  5
F8
330
1F
100
AcDbEntity
  8
0
  6
Continuous
 62
     7
370
    25
100
AcDbCircle
 10
1367.1268421004
 20
156.7326016478
 30
0.0
 40
0.4500000000003638
100
AcDbArc
 50
240.0
 51
316.6582417728
  0
ARC
  5
F9
330
1F
100
AcDbEntity
  8
0
  6
Continuous
 62
     7
370
    25
100
AcDbCircle
 10
1368.0268421004
 20
155.8832452738
 30
0.0
 40
0.7875000000001341
100
AcDbArc
 50
43.3417582272
 51
136.6582417728
  0
ARC
  5
FA
330
1F
100
AcDbEntity
  8
0
  6
Continuous
 62
     7
370
    25
100
AcDbCircle
 10
1368.9268421004
 20
156.7326016478
 30
0.0
 40
0.4500000000000331
100
AcDbArc
 50
223.3417582273
 51
300.0
  0
ARC
  5
FB
330
1F
100
AcDbEntity
  8
0
  6
Continuous
 62
     7
370
    25
100
AcDbCircle
 10
1367.1268421004
 20
159.8502931014
 30
0.0
 40
0.4499999999999839
100
AcDbArc
 50
43.3417582272
 51
120.0
  0
ARC
  5
FC
330
1F
100
AcDbEntity
  8
0
  6
Continuous
 62
     7
370
    25
100
AcDbCircle
 10
1368.0268421004
 20
160.6996494753
 30
0.0
 40
0.7875000000002028
100
AcDbArc
 50
223.3417582272
 51
316.6582417728
  0
ARC
  5
FD
330
1F
100
AcDbEntity
  8
0
  6
Continuous
 62
     7
370
    25
100
AcDbCircle
 10
1368.9268421004
 20
159.8502931014
 30
0.0
 40
0.4500000000002233
100
AcDbArc
 50
60.0
 51
136.6582417728
  0
ARC
  5
FE
330
1F
100
AcDbEntity
  8
0
  6
Continuous
 62
     7
370
    25
100
AcDbCircle
 10
-941.9731578996
 20
128.2914473746
 30
0.0
 40
2.250000000000217
100
AcDbArc
 50
240.0
 51
300.0
  0
ARC
  5
FF
330
1F
100
AcDbEntity
  8
0
  6
Continuous
 62
     7
370
    25
100
AcDbCircle
 10
-942.8731578996
 20
126.7326016478
 30
0.0
 40
0.4500000000002479
100
AcDbArc
 50
240.0
 51
316.6582417728
  0
ARC
  5
100
330
1F
100
AcDbEntity
  8
0
  6
Continuous
 62
     7
370
    25
100
AcDbCircle
 10
-941.0731578996
 20
126.7326016477
 30
0.0
 40
0.4500000000000065
100
AcDbArc
 50
223.3417582272
 51
300.0
  0
ARC
  5
101
330
1F
100
AcDbEntity
  8
0
  6
Continuous
 62
     7
370
    25
100
AcDbCircle
 10
-941.9731578996
 20
125.8832452738
 30
0.0
 40
0.7875000000002224
100
AcDbArc
 50
43.3417582272
 51
136.6582417727
  0
ARC
  5
102
330
1F
100
AcDbEntity
  8
0
  6
Continuous
 62
     7
370
    25
100
AcDbCircle
 10
-941.9731578996
 20
128.2914473746
 30
0.0
 40
2.250000000000114
100
AcDbArc
 50
360.0
 51
60.0
  0
ARC
  5
103
330
1F
100
AcDbEntity
  8
0
  6
Continuous
 62
     7
370
    25
100
AcDbCircle
 10
-940.1731578996
 20
128.2914473746
 30
0.0
 40
0.4499999999998181
100
AcDbArc
 50
360.0
 51
76.6582417728
  0
ARC
  5
104
330
1F
100
AcDbEntity
  8
0
  6
Continuous
 62
     7
370
    25
100
AcDbCircle
 10
-939.8875937029
 20
129.495548425
 30
0.0
 40
0.7875000000001587
100
AcDbArc
 50
163.3417582272
 51
256.6582417728
  0
ARC
  5
105
330
1F
100
AcDbEntity
  8
0
  6
Continuous
 62
     7
370
    25
100
AcDbCircle
 10
-941.0731578996
 20
129.8502931014
 30
0.0
 40
0.4500000000003634
100
AcDbArc
 50
343.3417582273
 51
60.0
  0
ARC
  5
106
330
1F
100
AcDbEntity
  8
0
  6
Continuous
 62
     7
370
    25
100
AcDbCircle
 10
-941.9731578996
 20
128.2914473746
 30
0.0
 40
2.250000000000094
100
AcDbArc
 50
60.0
 51
120.0
  0
ARC
  5
107
330
1F
100
AcDbEntity
  8
0
  6
Continuous
 62
     7
370
    25
100
AcDbCircle
 10
-942.8731578996
 20
129.8502931014
 30
0.0
 40
0.4500000000001158
100
AcDbArc
 50
43.3417582273
 51
120.0
  0
ARC
  5
108
330
1F
100
AcDbEntity
  8
0
  6
Continuous
 62
     7
370
    25
100
AcDbCircle
 10
-941.0731578996
 20
129.8502931014
 30
0.0
 40
0.4500000000003638
100
AcDbArc
 50
60.0
 51
136.6582417728
  0
ARC
  5
109
330
1F
100
AcDbEntity
  8
0
  6
Continuous
 62
     7
370
    25
100
AcDbCircle
 10
-941.9731578996
 20
130.6996494753
 30
0.0
 40
0.7875000000000514
100
AcDbArc
 50
223.3417582272
 51
316.6582417728
  0
ARC
  5
10A
330
1F
100
AcDbEntity
  8
0
  6
Continuous
 62
     7
370
    25
100
AcDbCircle
 10
-941.9731578996
 20
128.2914473746
 30
0.0
 40
2.250000000000086
100
AcDbArc
 50
180.0
 51
240.0
  0
ARC
  5
10B
330
1F
100
AcDbEntity
  8
0
  6
Continuous
 62
     7
370
    25
100
AcDbCircle
 10
-941.9731578996
 20
128.2914473746
 30
0.0
 40
2.250000000000217
100
AcDbArc
 50
300.0
 51
360.0
  0
ARC
  5
10C
330
1F
100
AcDbEntity
  8
0
  6
Continuous
 62
     7
370
    25
100
AcDbCircle
 10
-941.9731578996
 20
128.2914473746
 30
0.0
 40
2.249999999999886
100
AcDbArc
 50
120.0
 51
180.0
  0
CIRCLE
  5
10D
330
1F
100
AcDbEntity
  8
0
  6
Continuous
 62
     7
370
    25
100
AcDbCircle
 10
-941.9731578996
 20
128.2914473746
 30
0.0
 40
3.849999999999909
  0
ARC
  5
10E
330
1F
100
AcDbEntity
  8
0
  6
Continuous
 62
     7
370
    25
100
AcDbCircle
 10
-943.7731578996
 20
128.2914473746
 30
0.0
 40
0.4499999999999318
100
AcDbArc
 50
180.0
 51
256.6582417728
  0
ARC
  5
10F
330
1F
100
AcDbEntity
  8
0
  6
Continuous
 62
     7
370
    25
100
AcDbCircle
 10
-944.0587220964
 20
127.0873463242
 30
0.0
 40
0.7875000000002003
100
AcDbArc
 50
343.3417582272
 51
76.6582417728
  0
ARC
  5
110
330
1F
100
AcDbEntity
  8
0
  6
Continuous
 62
     7
370
    25
100
AcDbCircle
 10
-942.8731578996
 20
126.7326016478
 30
0.0
 40
0.4500000000002479
100
AcDbArc
 50
163.3417582273
 51
240.0
  0
ARC
  5
111
330
1F
100
AcDbEntity
  8
0
  6
Continuous
 62
     7
370
    25
100
AcDbCircle
 10
-942.8731578996
 20
129.8502931014
 30
0.0
 40
0.4500000000000112
100
AcDbArc
 50
120.0
 51
196.6582417727
  0
ARC
  5
112
330
1F
100
AcDbEntity
  8
0
  6
Continuous
 62
     7
370
    25
100
AcDbCircle
 10
-944.0587220964
 20
129.495548425
 30
0.0
 40
0.7875000000001874
100
AcDbArc
 50
283.3417582272
 51
16.6582417728
  0
ARC
  5
113
330
1F
100
AcDbEntity
  8
0
  6
Continuous
 62
     7
370
    25
100
AcDbCircle
 10
-943.7731578996
 20
128.2914473746
 30
0.0
 40
0.4500000000001296
100
AcDbArc
 50
103.3417582272
 51
180.0
  0
ARC
  5
114
330
1F
100
AcDbEntity
  8
0
  6
Continuous
 62
     7
370
    25
100
AcDbCircle
 10
-941.0731578996
 20
126.7326016477
 30
0.0
 40
0.4500000000000065
100
AcDbArc
 50
300.0
 51
16.6582417728
  0
ARC
  5
115
330
1F
100
AcDbEntity
  8
0
  6
Continuous
 62
     7
370
    25
100
AcDbCircle
 10
-939.8875937029
 20
127.0873463242
 30
0.0
 40
0.7875000000001201
100
AcDbArc
 50
103.3417582272
 51
196.6582417728
  0
ARC
  5
116
330
1F
100
AcDbEntity
  8
0
  6
Continuous
 62
     7
370
    25
100
AcDbCircle
 10
-940.1731578996
 20
128.2914473746
 30
0.0
 40
0.4499999999999817
100
AcDbArc
 50
283.3417582272
 51
360.0
  0
ARC
  5
117
330
1F
100
AcDbEntity
  8
0
  6
Continuous
 62
     7
370
    25
100
AcDbCircle
 10
1278.0268421004
 20
143.2914473746
 30
0.0
 40
2.250000000000062
100
AcDbArc
 50
360.0
 51
60.0
  0
ARC
  5
118
330
1F
100
AcDbEntity
  8
0
  6
Continuous
 62
     7
370
    25
100
AcDbCircle
 10
1278.0268421004
 20
143.2914473746
 30
0.0
 40
2.250000000000135
100
AcDbArc
 50
60.0
 51
120.0
  0
ARC
  5
119
330
1F
100
AcDbEntity
  8
0
  6
Continuous
 62
     7
370
    25
100
AcDbCircle
 10
1278.0268421004
 20
143.2914473746
 30
0.0
 40
2.250000000000135
100
AcDbArc
 50
120.0
 51
180.0
  0
ARC
  5
11A
330
1F
100
AcDbEntity
  8
0
  6
Continuous
 62
     7
370
    25
100
AcDbCircle
 10
1278.0268421004
 20
143.2914473746
 30
0.0
 40
2.250000000000062
100
AcDbArc
 50
180.0
 51
240.0
  0
ARC
  5
11B
330
1F
100
AcDbEntity
  8
0
  6
Continuous
 62
     7
370
    25
100
AcDbCircle
 10
1278.0268421004
 20
143.2914473746
 30
0.0
 40
2.250000000000062
100
AcDbArc
 50
240.0
 51
300.0
  0
ARC
  5
11C
330
1F
100
AcDbEntity
  8
0
  6
Continuous
 62
     7
370
    25
100
AcDbCircle
 10
1278.0268421004
 20
143.2914473746
 30
0.0
 40
2.25
100
AcDbArc
 50
300.0
 51
360.0
  0
CIRCLE
  5
11D
330
1F
100
AcDbEntity
  8
0
  6
Continuous
 62
     7
370
    25
100
AcDbCircle
 10
1278.0268421004
 20
143.2914473746
 30
0.0
 40
3.849999999999909
  0
ARC
  5
11E
330
1F
100
AcDbEntity
  8
0
  6
Continuous
 62
     7
370
    25
100
AcDbCircle
 10
1278.9268421004
 20
144.8502931014
 30
0.0
 40
0.4500000000002479
100
AcDbArc
 50
60.0
 51
136.6582417728
  0
ARC
  5
11F
330
1F
100
AcDbEntity
  8
0
  6
Continuous
 62
     7
370
    25
100
AcDbCircle
 10
1277.1268421004
 20
144.8502931014
 30
0.0
 40
0.4499999999999643
100
AcDbArc
 50
43.3417582272
 51
120.0
  0
ARC
  5
120
330
1F
100
AcDbEntity
  8
0
  6
Continuous
 62
     7
370
    25
100
AcDbCircle
 10
1278.0268421004
 20
145.6996494753
 30
0.0
 40
0.7875000000002224
100
AcDbArc
 50
223.3417582272
 51
316.6582417728
  0
ARC
  5
121
330
1F
100
AcDbEntity
  8
0
  6
Continuous
 62
     7
370
    25
100
AcDbCircle
 10
1276.2268421004
 20
143.2914473746
 30
0.0
 40
0.4500000000000204
100
AcDbArc
 50
103.3417582272
 51
180.0
  0
ARC
  5
122
330
1F
100
AcDbEntity
  8
0
  6
Continuous
 62
     7
370
    25
100
AcDbCircle
 10
1275.9412779036
 20
144.495548425
 30
0.0
 40
0.78750000000008
100
AcDbArc
 50
283.3417582272
 51
16.6582417728
  0
ARC
  5
123
330
1F
100
AcDbEntity
  8
0
  6
Continuous
 62
     7
370
    25
100
AcDbCircle
 10
1277.1268421004
 20
144.8502931014
 30
0.0
 40
0.4499999999999892
100
AcDbArc
 50
120.0
 51
196.6582417728
  0
ARC
  5
124
330
1F
100
AcDbEntity
  8
0
  6
Continuous
 62
     7
370
    25
100
AcDbCircle
 10
1280.1124062971
 20
144.495548425
 30
0.0
 40
0.7875000000001602
100
AcDbArc
 50
163.3417582272
 51
256.6582417728
  0
ARC
  5
125
330
1F
100
AcDbEntity
  8
0
  6
Continuous
 62
     7
370
    25
100
AcDbCircle
 10
1278.9268421004
 20
144.8502931014
 30
0.0
 40
0.4500000000002479
100
AcDbArc
 50
343.3417582273
 51
60.0
  0
ARC
  5
126
330
1F
100
AcDbEntity
  8
0
  6
Continuous
 62
     7
370
    25
100
AcDbCircle
 10
1279.8268421004
 20
143.2914473746
 30
0.0
 40
0.4500000000000455
100
AcDbArc
 50
360.0
 51
76.6582417728
  0
ARC
  5
127
330
1F
100
AcDbEntity
  8
0
  6
Continuous
 62
     7
370
    25
100
AcDbCircle
 10
1277.1268421004
 20
141.7326016478
 30
0.0
 40
0.4500000000003638
100
AcDbArc
 50
240.0
 51
316.6582417728
  0
ARC
  5
128
330
1F
100
AcDbEntity
  8
0
  6
Continuous
 62
     7
370
    25
100
AcDbCircle
 10
1278.0268421004
 20
140.8832452738
 30
0.0
 40
0.7875000000001536
100
AcDbArc
 50
43.3417582272
 51
136.6582417728
  0
ARC
  5
129
330
1F
100
AcDbEntity
  8
0
  6
Continuous
 62
     7
370
    25
100
AcDbCircle
 10
1278.9268421004
 20
141.7326016478
 30
0.0
 40
0.4500000000000136
100
AcDbArc
 50
223.3417582273
 51
300.0
  0
ARC
  5
12A
330
1F
100
AcDbEntity
  8
0
  6
Continuous
 62
     7
370
    25
100
AcDbCircle
 10
1276.2268421004
 20
143.2914473746
 30
0.0
 40
0.4499999999998181
100
AcDbArc
 50
180.0
 51
256.6582417728
  0
ARC
  5
12B
330
1F
100
AcDbEntity
  8
0
  6
Continuous
 62
     7
370
    25
100
AcDbCircle
 10
1275.9412779036
 20
142.0873463242
 30
0.0
 40
0.7875000000001325
100
AcDbArc
 50
343.3417582272
 51
76.6582417728
  0
ARC
  5
12C
330
1F
100
AcDbEntity
  8
0
  6
Continuous
 62
     7
370
    25
100
AcDbCircle
 10
1277.1268421004
 20
141.7326016478
 30
0.0
 40
0.4500000000003065
100
AcDbArc
 50
163.3417582273
 51
240.0
  0
ARC
  5
12D
330
1F
100
AcDbEntity
  8
0
  6
Continuous
 62
     7
370
    25
100
AcDbCircle
 10
1280.1124062971
 20
142.0873463242
 30
0.0
 40
0.7875000000000703
100
AcDbArc
 50
103.3417582272
 51
196.6582417728
  0
ARC
  5
12E
330
1F
100
AcDbEntity
  8
0
  6
Continuous
 62
     7
370
    25
100
AcDbCircle
 10
1278.9268421004
 20
141.7326016478
 30
0.0
 40
0.450000000000093
100
AcDbArc
 50
300.0
 51
16.6582417727
  0
ARC
  5
12F
330
1F
100
AcDbEntity
  8
0
  6
Continuous
 62
     7
370
    25
100
AcDbCircle
 10
1279.8268421004
 20
143.2914473746
 30
0.0
 40
0.450000000000131
100
AcDbArc
 50
283.3417582272
 51
360.0
  0
ARC
  5
130
330
1F
100
AcDbEntity
  8
0
  6
Continuous
 62
     7
370
    25
100
AcDbCircle
 10
-851.9731578996
 20
143.2914473746
 30
0.0
 40
2.250000000000114
100
AcDbArc
 50
180.0
 51
240.0
  0
ARC
  5
131
330
1F
100
AcDbEntity
  8
0
  6
Continuous
 62
     7
370
    25
100
AcDbCircle
 10
-853.7731578996
 20
143.2914473746
 30
0.0
 40
0.4500000000000455
100
AcDbArc
 50
180.0
 51
256.6582417728
  0
ARC
  5
132
330
1F
100
AcDbEntity
  8
0
  6
Continuous
 62
     7
370
    25
100
AcDbCircle
 10
-854.0587220964
 20
142.0873463242
 30
0.0
 40
0.7875000000001864
100
AcDbArc
 50
343.3417582272
 51
76.6582417728
  0
ARC
  5
133
330
1F
100
AcDbEntity
  8
0
  6
Continuous
 62
     7
370
    25
100
AcDbCircle
 10
-852.8731578996
 20
141.7326016477
 30
0.0
 40
0.4500000000002479
100
AcDbArc
 50
163.3417582273
 51
240.0
  0
ARC
  5
134
330
1F
100
AcDbEntity
  8
0
  6
Continuous
 62
     7
370
    25
100
AcDbCircle
 10
-851.9731578996
 20
143.2914473746
 30
0.0
 40
2.250000000000135
100
AcDbArc
 50
300.0
 51
360.0
  0
ARC
  5
135
330
1F
100
AcDbEntity
  8
0
  6
Continuous
 62
     7
370
    25
100
AcDbCircle
 10
-851.0731578996
 20
141.7326016477
 30
0.0
 40
0.4499999999999127
100
AcDbArc
 50
300.0
 51
16.6582417728
  0
ARC
  5
136
330
1F
100
AcDbEntity
  8
0
  6
Continuous
 62
     7
370
    25
100
AcDbCircle
 10
-849.8875937029
 20
142.0873463242
 30
0.0
 40
0.7875000000001062
100
AcDbArc
 50
103.3417582272
 51
196.6582417728
  0
ARC
  5
137
330
1F
100
AcDbEntity
  8
0
  6
Continuous
 62
     7
370
    25
100
AcDbCircle
 10
-850.1731578996
 20
143.2914473746
 30
0.0
 40
0.4499999999999942
100
AcDbArc
 50
283.3417582272
 51
360.0
  0
ARC
  5
138
330
1F
100
AcDbEntity
  8
0
  6
Continuous
 62
     7
370
    25
100
AcDbCircle
 10
-851.9731578996
 20
143.2914473746
 30
0.0
 40
2.250000000000135
100
AcDbArc
 50
240.0
 51
300.0
  0
ARC
  5
139
330
1F
100
AcDbEntity
  8
0
  6
Continuous
 62
     7
370
    25
100
AcDbCircle
 10
-852.8731578996
 20
141.7326016477
 30
0.0
 40
0.4500000000002479
100
AcDbArc
 50
240.0
 51
316.6582417728
  0
ARC
  5
13A
330
1F
100
AcDbEntity
  8
0
  6
Continuous
 62
     7
370
    25
100
AcDbCircle
 10
-851.9731578996
 20
140.8832452738
 30
0.0
 40
0.7875000000002028
100
AcDbArc
 50
43.3417582272
 51
136.6582417728
  0
ARC
  5
13B
330
1F
100
AcDbEntity
  8
0
  6
Continuous
 62
     7
370
    25
100
AcDbCircle
 10
-851.0731578996
 20
141.7326016477
 30
0.0
 40
0.4499999999999643
100
AcDbArc
 50
223.3417582272
 51
300.0
  0
ARC
  5
13C
330
1F
100
AcDbEntity
  8
0
  6
Continuous
 62
     7
370
    25
100
AcDbCircle
 10
-851.9731578996
 20
143.2914473746
 30
0.0
 40
2.250000000000114
100
AcDbArc
 50
360.0
 51
60.0
  0
ARC
  5
13D
330
1F
100
AcDbEntity
  8
0
  6
Continuous
 62
     7
370
    25
100
AcDbCircle
 10
-851.9731578996
 20
143.2914473746
 30
0.0
 40
2.250000000000062
100
AcDbArc
 50
60.0
 51
120.0
  0
ARC
  5
13E
330
1F
100
AcDbEntity
  8
0
  6
Continuous
 62
     7
370
    25
100
AcDbCircle
 10
-851.9731578996
 20
143.2914473746
 30
0.0
 40
2.250000000000114
100
AcDbArc
 50
120.0
 51
180.0
  0
CIRCLE
  5
13F
330
1F
100
AcDbEntity
  8
0
  6
Continuous
 62
     7
370
    25
100
AcDbCircle
 10
-851.9731578996
 20
143.2914473746
 30
0.0
 40
3.849999999999909
  0
ARC
  5
140
330
1F
100
AcDbEntity
  8
0
  6
Continuous
 62
     7
370
    25
100
AcDbCircle
 10
-851.0731578996
 20
144.8502931014
 30
0.0
 40
0.4500000000003638
100
AcDbArc
 50
60.0
 51
136.6582417728
  0
ARC
  5
141
330
1F
100
AcDbEntity
  8
0
  6
Continuous
 62
     7
370
    25
100
AcDbCircle
 10
-851.9731578996
 20
145.6996494753
 30
0.0
 40
0.7875000000001341
100
AcDbArc
 50
223.3417582272
 51
316.6582417728
  0
ARC
  5
142
330
1F
100
AcDbEntity
  8
0
  6
Continuous
 62
     7
370
    25
100
AcDbCircle
 10
-852.8731578996
 20
144.8502931014
 30
0.0
 40
0.450000000000068
100
AcDbArc
 50
43.3417582273
 51
120.0
  0
ARC
  5
143
330
1F
100
AcDbEntity
  8
0
  6
Continuous
 62
     7
370
    25
100
AcDbCircle
 10
-850.1731578996
 20
143.2914473746
 30
0.0
 40
0.4499999999999318
100
AcDbArc
 50
360.0
 51
76.6582417728
  0
ARC
  5
144
330
1F
100
AcDbEntity
  8
0
  6
Continuous
 62
     7
370
    25
100
AcDbCircle
 10
-849.8875937029
 20
144.495548425
 30
0.0
 40
0.7875000000001628
100
AcDbArc
 50
163.3417582272
 51
256.6582417728
  0
ARC
  5
145
330
1F
100
AcDbEntity
  8
0
  6
Continuous
 62
     7
370
    25
100
AcDbCircle
 10
-851.0731578996
 20
144.8502931014
 30
0.0
 40
0.4500000000003065
100
AcDbArc
 50
343.3417582273
 51
60.0
  0
ARC
  5
146
330
1F
100
AcDbEntity
  8
0
  6
Continuous
 62
     7
370
    25
100
AcDbCircle
 10
-854.0587220964
 20
144.495548425
 30
0.0
 40
0.7875000000000785
100
AcDbArc
 50
283.3417582272
 51
16.6582417728
  0
ARC
  5
147
330
1F
100
AcDbEntity
  8
0
  6
Continuous
 62
     7
370
    25
100
AcDbCircle
 10
-853.7731578996
 20
143.2914473746
 30
0.0
 40
0.450000000000131
100
AcDbArc
 50
103.3417582272
 51
180.0
  0
ARC
  5
148
330
1F
100
AcDbEntity
  8
0
  6
Continuous
 62
     7
370
    25
100
AcDbCircle
 10
-852.8731578996
 20
144.8502931014
 30
0.0
 40
0.4500000000000848
100
AcDbArc
 50
120.0
 51
196.6582417727
  0
ARC
  5
149
330
1F
100
AcDbEntity
  8
0
  6
Continuous
 62
     7
370
    25
100
AcDbCircle
 10
-941.9731578996
 20
158.2914473746
 30
0.0
 40
2.250000000000119
100
AcDbArc
 50
60.0
 51
120.0
  0
ARC
  5
14A
330
1F
100
AcDbEntity
  8
0
  6
Continuous
 62
     7
370
    25
100
AcDbCircle
 10
-941.0731578996
 20
159.8502931014
 30
0.0
 40
0.4500000000003638
100
AcDbArc
 50
60.0
 51
136.6582417728
  0
ARC
  5
14B
330
1F
100
AcDbEntity
  8
0
  6
Continuous
 62
     7
370
    25
100
AcDbCircle
 10
-941.9731578996
 20
160.6996494753
 30
0.0
 40
0.7875000000000514
100
AcDbArc
 50
223.3417582272
 51
316.6582417728
  0
ARC
  5
14C
330
1F
100
AcDbEntity
  8
0
  6
Continuous
 62
     7
370
    25
100
AcDbCircle
 10
-942.8731578996
 20
159.8502931014
 30
0.0
 40
0.4500000000001158
100
AcDbArc
 50
43.3417582273
 51
120.0
  0
ARC
  5
14D
330
1F
100
AcDbEntity
  8
0
  6
Continuous
 62
     7
370
    25
100
AcDbCircle
 10
-941.9731578996
 20
158.2914473746
 30
0.0
 40
2.250000000000037
100
AcDbArc
 50
180.0
 51
240.0
  0
ARC
  5
14E
330
1F
100
AcDbEntity
  8
0
  6
Continuous
 62
     7
370
    25
100
AcDbCircle
 10
-943.7731578996
 20
158.2914473746
 30
0.0
 40
0.4499999999999318
100
AcDbArc
 50
180.0
 51
256.6582417728
  0
ARC
  5
14F
330
1F
100
AcDbEntity
  8
0
  6
Continuous
 62
     7
370
    25
100
AcDbCircle
 10
-944.0587220964
 20
157.0873463242
 30
0.0
 40
0.7875000000001864
100
AcDbArc
 50
343.3417582272
 51
76.6582417728
  0
ARC
  5
150
330
1F
100
AcDbEntity
  8
0
  6
Continuous
 62
     7
370
    25
100
AcDbCircle
 10
-942.8731578996
 20
156.7326016478
 30
0.0
 40
0.4500000000002233
100
AcDbArc
 50
163.3417582273
 51
240.0
  0
ARC
  5
151
330
1F
100
AcDbEntity
  8
0
  6
Continuous
 62
     7
370
    25
100
AcDbCircle
 10
-941.9731578996
 20
158.2914473746
 30
0.0
 40
2.249999999999886
100
AcDbArc
 50
120.0
 51
180.0
  0
ARC
  5
152
330
1F
100
AcDbEntity
  8
0
  6
Continuous
 62
     7
370
    25
100
AcDbCircle
 10
-942.8731578996
 20
159.8502931014
 30
0.0
 40
0.4500000000000112
100
AcDbArc
 50
120.0
 51
196.6582417727
  0
ARC
  5
153
330
1F
100
AcDbEntity
  8
0
  6
Continuous
 62
     7
370
    25
100
AcDbCircle
 10
-944.0587220964
 20
159.495548425
 30
0.0
 40
0.7875000000001874
100
AcDbArc
 50
283.3417582272
 51
16.6582417728
  0
ARC
  5
154
330
1F
100
AcDbEntity
  8
0
  6
Continuous
 62
     7
370
    25
100
AcDbCircle
 10
-943.7731578996
 20
158.2914473746
 30
0.0
 40
0.4500000000001573
100
AcDbArc
 50
103.3417582272
 51
180.0
  0
ARC
  5
155
330
1F
100
AcDbEntity
  8
0
  6
Continuous
 62
     7
370
    25
100
AcDbCircle
 10
-941.9731578996
 20
158.2914473746
 30
0.0
 40
2.250000000000192
100
AcDbArc
 50
240.0
 51
300.0
  0
ARC
  5
156
330
1F
100
AcDbEntity
  8
0
  6
Continuous
 62
     7
370
    25
100
AcDbCircle
 10
-941.9731578996
 20
158.2914473746
 30
0.0
 40
2.250000000000192
100
AcDbArc
 50
300.0
 51
360.0
  0
ARC
  5
157
330
1F
100
AcDbEntity
  8
0
  6
Continuous
 62
     7
370
    25
100
AcDbCircle
 10
-941.9731578996
 20
158.2914473746
 30
0.0
 40
2.250000000000119
100
AcDbArc
 50
360.0
 51
60.0
  0
CIRCLE
  5
158
330
1F
100
AcDbEntity
  8
0
  6
Continuous
 62
     7
370
    25
100
AcDbCircle
 10
-941.9731578996
 20
158.2914473746
 30
0.0
 40
3.849999999999909
  0
ARC
  5
159
330
1F
100
AcDbEntity
  8
0
  6
Continuous
 62
     7
370
    25
100
AcDbCircle
 10
-940.1731578996
 20
158.2914473746
 30
0.0
 40
0.4499999999998181
100
AcDbArc
 50
360.0
 51
76.6582417728
  0
ARC
  5
15A
330
1F
100
AcDbEntity
  8
0
  6
Continuous
 62
     7
370
    25
100
AcDbCircle
 10
-941.0731578996
 20
159.8502931014
 30
0.0
 40
0.4500000000003634
100
AcDbArc
 50
343.3417582273
 51
60.0
  0
ARC
  5
15B
330
1F
100
AcDbEntity
  8
0
  6
Continuous
 62
     7
370
    25
100
AcDbCircle
 10
-939.8875937029
 20
159.495548425
 30
0.0
 40
0.7875000000001864
100
AcDbArc
 50
163.3417582272
 51
256.6582417728
  0
ARC
  5
15C
330
1F
100
AcDbEntity
  8
0
  6
Continuous
 62
     7
370
    25
100
AcDbCircle
 10
-940.1731578996
 20
158.2914473746
 30
0.0
 40
0.4499999999999679
100
AcDbArc
 50
283.3417582272
 51
360.0
  0
ARC
  5
15D
330
1F
100
AcDbEntity
  8
0
  6
Continuous
 62
     7
370
    25
100
AcDbCircle
 10
-941.0731578996
 20
156.7326016477
 30
0.0
 40
0.4499999999999974
100
AcDbArc
 50
300.0
 51
16.6582417728
  0
ARC
  5
15E
330
1F
100
AcDbEntity
  8
0
  6
Continuous
 62
     7
370
    25
100
AcDbCircle
 10
-939.8875937029
 20
157.0873463242
 30
0.0
 40
0.7875000000001339
100
AcDbArc
 50
103.3417582272
 51
196.6582417728
  0
ARC
  5
15F
330
1F
100
AcDbEntity
  8
0
  6
Continuous
 62
     7
370
    25
100
AcDbCircle
 10
-941.9731578996
 20
155.8832452738
 30
0.0
 40
0.7875000000001833
100
AcDbArc
 50
43.3417582272
 51
136.6582417728
  0
ARC
  5
160
330
1F
100
AcDbEntity
  8
0
  6
Continuous
 62
     7
370
    25
100
AcDbCircle
 10
-941.0731578996
 20
156.7326016477
 30
0.0
 40
0.4499999999999695
100
AcDbArc
 50
223.3417582272
 51
300.0
  0
ARC
  5
161
330
1F
100
AcDbEntity
  8
0
  6
Continuous
 62
     7
370
    25
100
AcDbCircle
 10
-942.8731578996
 20
156.7326016478
 30
0.0
 40
0.4500000000002233
100
AcDbArc
 50
240.0
 51
316.6582417728
  0
ARC
  5
162
330
1F
100
AcDbEntity
  8
0
  6
Continuous
 62
     7
370
    25
100
AcDbCircle
 10
1368.0268421004
 20
128.2914473746
 30
0.0
 40
2.250000000000062
100
AcDbArc
 50
240.0
 51
300.0
  0
ARC
  5
163
330
1F
100
AcDbEntity
  8
0
  6
Continuous
 62
     7
370
    25
100
AcDbCircle
 10
1367.1268421004
 20
126.7326016478
 30
0.0
 40
0.450000000000354
100
AcDbArc
 50
240.0
 51
316.6582417728
  0
ARC
  5
164
330
1F
100
AcDbEntity
  8
0
  6
Continuous
 62
     7
370
    25
100
AcDbCircle
 10
1368.0268421004
 20
125.8832452738
 30
0.0
 40
0.7875000000001341
100
AcDbArc
 50
43.3417582272
 51
136.6582417728
  0
ARC
  5
165
330
1F
100
AcDbEntity
  8
0
  6
Continuous
 62
     7
370
    25
100
AcDbCircle
 10
1368.9268421004
 20
126.7326016478
 30
0.0
 40
0.4500000000000234
100
AcDbArc
 50
223.3417582273
 51
300.0
  0
ARC
  5
166
330
1F
100
AcDbEntity
  8
0
  6
Continuous
 62
     7
370
    25
100
AcDbCircle
 10
1368.0268421004
 20
128.2914473746
 30
0.0
 40
2.250000000000062
100
AcDbArc
 50
180.0
 51
240.0
  0
ARC
  5
167
330
1F
100
AcDbEntity
  8
0
  6
Continuous
 62
     7
370
    25
100
AcDbCircle
 10
1366.2268421004
 20
128.2914473746
 30
0.0
 40
0.4499999999998181
100
AcDbArc
 50
180.0
 51
256.6582417728
  0
ARC
  5
168
330
1F
100
AcDbEntity
  8
0
  6
Continuous
 62
     7
370
    25
100
AcDbCircle
 10
1365.9412779036
 20
127.0873463242
 30
0.0
 40
0.7875000000001988
100
AcDbArc
 50
343.3417582272
 51
76.6582417728
  0
ARC
  5
169
330
1F
100
AcDbEntity
  8
0
  6
Continuous
 62
     7
370
    25
100
AcDbCircle
 10
1367.1268421004
 20
126.7326016478
 30
0.0
 40
0.4500000000003065
100
AcDbArc
 50
163.3417582273
 51
240.0
  0
ARC
  5
16A
330
1F
100
AcDbEntity
  8
0
  6
Continuous
 62
     7
370
    25
100
AcDbCircle
 10
1368.0268421004
 20
128.2914473746
 30
0.0
 40
2.250000000000135
100
AcDbArc
 50
120.0
 51
180.0
  0
ARC
  5
16B
330
1F
100
AcDbEntity
  8
0
  6
Continuous
 62
     7
370
    25
100
AcDbCircle
 10
1367.1268421004
 20
129.8502931014
 30
0.0
 40
0.4499999999999892
100
AcDbArc
 50
120.0
 51
196.6582417728
  0
ARC
  5
16C
330
1F
100
AcDbEntity
  8
0
  6
Continuous
 62
     7
370
    25
100
AcDbCircle
 10
1365.9412779036
 20
129.495548425
 30
0.0
 40
0.7875000000001325
100
AcDbArc
 50
283.3417582272
 51
16.6582417728
  0
ARC
  5
16D
330
1F
100
AcDbEntity
  8
0
  6
Continuous
 62
     7
370
    25
100
AcDbCircle
 10
1366.2268421004
 20
128.2914473746
 30
0.0
 40
0.4499999999999679
100
AcDbArc
 50
103.3417582272
 51
180.0
  0
ARC
  5
16E
330
1F
100
AcDbEntity
  8
0
  6
Continuous
 62
     7
370
    25
100
AcDbCircle
 10
1368.0268421004
 20
128.2914473746
 30
0.0
 40
2.250000000000227
100
AcDbArc
 50
300.0
 51
360.0
  0
ARC
  5
16F
330
1F
100
AcDbEntity
  8
0
  6
Continuous
 62
     7
370
    25
100
AcDbCircle
 10
1368.9268421004
 20
126.7326016478
 30
0.0
 40
0.4500000000000889
100
AcDbArc
 50
300.0
 51
16.6582417727
  0
ARC
  5
170
330
1F
100
AcDbEntity
  8
0
  6
Continuous
 62
     7
370
    25
100
AcDbCircle
 10
1370.1124062971
 20
127.0873463242
 30
0.0
 40
0.7875000000000744
100
AcDbArc
 50
103.3417582272
 51
196.6582417728
  0
ARC
  5
171
330
1F
100
AcDbEntity
  8
0
  6
Continuous
 62
     7
370
    25
100
AcDbCircle
 10
1369.8268421004
 20
128.2914473746
 30
0.0
 40
0.450000000000131
100
AcDbArc
 50
283.3417582272
 51
360.0
  0
ARC
  5
172
330
1F
100
AcDbEntity
  8
0
  6
Continuous
 62
     7
370
    25
100
AcDbCircle
 10
1368.0268421004
 20
128.2914473746
 30
0.0
 40
2.250000000000227
100
AcDbArc
 50
360.0
 51
60.0
  0
ARC
  5
173
330
1F
100
AcDbEntity
  8
0
  6
Continuous
 62
     7
370
    25
100
AcDbCircle
 10
1368.0268421004
 20
128.2914473746
 30
0.0
 40
2.250000000000135
100
AcDbArc
 50
60.0
 51
120.0
  0
CIRCLE
  5
174
330
1F
100
AcDbEntity
  8
0
  6
Continuous
 62
     7
370
    25
100
AcDbCircle
 10
1368.0268421004
 20
128.2914473746
 30
0.0
 40
3.849999999999909
  0
ARC
  5
175
330
1F
100
AcDbEntity
  8
0
  6
Continuous
 62
     7
370
    25
100
AcDbCircle
 10
1367.1268421004
 20
129.8502931014
 30
0.0
 40
0.4499999999999643
100
AcDbArc
 50
43.3417582272
 51
120.0
  0
ARC
  5
176
330
1F
100
AcDbEntity
  8
0
  6
Continuous
 62
     7
370
    25
100
AcDbCircle
 10
1368.0268421004
 20
130.6996494753
 30
0.0
 40
0.7875000000002224
100
AcDbArc
 50
223.3417582272
 51
316.6582417728
  0
ARC
  5
177
330
1F
100
AcDbEntity
  8
0
  6
Continuous
 62
     7
370
    25
100
AcDbCircle
 10
1368.9268421004
 20
129.8502931014
 30
0.0
 40
0.4500000000002479
100
AcDbArc
 50
60.0
 51
136.6582417728
  0
ARC
  5
178
330
1F
100
AcDbEntity
  8
0
  6
Continuous
 62
     7
370
    25
100
AcDbCircle
 10
1368.9268421004
 20
129.8502931014
 30
0.0
 40
0.4500000000002479
100
AcDbArc
 50
343.3417582273
 51
60.0
  0
ARC
  5
179
330
1F
100
AcDbEntity
  8
0
  6
Continuous
 62
     7
370
    25
100
AcDbCircle
 10
1369.8268421004
 20
128.2914473746
 30
0.0
 40
0.4500000000000455
100
AcDbArc
 50
360.0
 51
76.6582417728
  0
ARC
  5
17A
330
1F
100
AcDbEntity
  8
0
  6
Continuous
 62
     7
370
    25
100
AcDbCircle
 10
1370.1124062971
 20
129.495548425
 30
0.0
 40
0.7875000000001602
100
AcDbArc
 50
163.3417582272
 51
256.6582417728
  0
ARC
  5
17B
330
1F
100
AcDbEntity
  8
0
  6
Continuous
 62
     7
370
    25
100
AcDbCircle
 10
-936.4738495984
 20
89.2932430342
 30
0.0
 40
63.47444413198319
100
AcDbArc
 50
247.7246621443
 51
320.422626138
  0
LWPOLYLINE
  5
17C
330
1F
100
AcDbEntity
  8
0
  6
Continuous
 62
     7
370
    25
100
AcDbPolyline
 90
        7
 70
   128
 43
0.0
 10
-960.5343378996
 20
30.555708522
 10
-960.4657483636
 20
30.7102450232
 10
-960.2677479425
 20
31.1563971294
 10
-959.9626667466
 20
31.8439657001
 10
-959.5848242141
 20
32.6957471126
 10
-959.3353565665
 20
33.2582721541
 10
-959.3172298108
 20
33.2991507249
  0
ARC
  5
17D
330
1F
100
AcDbEntity
  8
0
  6
Continuous
 62
     7
370
    25
100
AcDbCircle
 10
-936.4738495984
 20
89.2932430342
 30
0.0
 40
60.4744441319832
100
AcDbArc
 50
247.8064786741
 51
320.4360199895
  0
LWPOLYLINE
  5
17E
330
1F
100
AcDbEntity
  8
0
  6
Continuous
 62
     7
370
    25
100
AcDbPolyline
 90
        7
 70
   128
 43
0.0
 10
-887.5499758996
 20
48.852426522
 10
-887.6798038971
 20
48.9607950896
 10
-888.0546556619
 20
49.2736751902
 10
-888.632286596
 20
49.7557754175
 10
-889.3475978744
 20
50.3527266355
 10
-889.7679385109
 20
50.7034840961
 10
-889.8532649704
 20
50.7746828065
  0
ARC
  5
17F
330
1F
100
AcDbEntity
  8
0
  6
Continuous
 62
     7
370
    25
100
AcDbCircle
 10
-791.9731938667
 20
-31.7084908772
 30
0.0
 40
124.9999307039029
100
AcDbArc
 50
97.9281298636
 51
139.8727244278
  0
ARC
  5
180
330
1F
100
AcDbEntity
  8
0
  6
Continuous
 62
     7
370
    25
100
AcDbCircle
 10
-791.9731938667
 20
-31.7084908772
 30
0.0
 40
127.9999307039029
100
AcDbArc
 50
97.928130342
 51
139.8792848399
  0
LINE
  5
181
330
1F
100
AcDbEntity
  8
0
  6
Continuous
 62
     7
370
    25
100
AcDbLine
 10
-809.2145378996
 20
92.096673522
 30
0.0
 11
-809.6283314445
 21
95.0679989674
 31
0.0
  0
ARC
  5
182
330
1F
100
AcDbEntity
  8
0
  6
Continuous
 62
     7
370
    25
100
AcDbCircle
 10
-936.4738502779
 20
197.2896515098
 30
0.0
 40
60.47444433711904
100
AcDbArc
 50
39.5639792539
 51
112.1935205693
  0
LWPOLYLINE
  5
183
330
1F
100
AcDbEntity
  8
0
  6
Continuous
 62
     7
370
    25
100
AcDbPolyline
 90
        7
 70
   128
 43
0.0
 10
-960.5343378996
 20
256.027186522
 10
-960.4657483646
 20
255.8726500203
 10
-960.2677479464
 20
255.426497913
 10
-959.962666755
 20
254.7389293404
 10
-959.584824228
 20
253.8871479253
 10
-959.3353565817
 20
253.324622877
 10
-959.3172298284
 20
253.2837443107
  0
ARC
  5
184
330
1F
100
AcDbEntity
  8
0
  6
Continuous
 62
     7
370
    25
100
AcDbCircle
 10
-936.4738502779
 20
197.2896515098
 30
0.0
 40
63.4744443371191
100
AcDbArc
 50
39.5773731234
 51
112.2753371171
  0
LWPOLYLINE
  5
185
330
1F
100
AcDbEntity
  8
0
  6
Continuous
 62
     7
370
    25
100
AcDbPolyline
 90
        7
 70
   128
 43
0.0
 10
-889.8532649831
 20
235.8082112526
 10
-889.7679385804
 20
235.8794099145
 10
-889.3475978842
 20
236.2301674202
 10
-888.6322866019
 20
236.8271186336
 10
-888.0546556647
 20
237.3092188571
 10
-887.6798038978
 20
237.6220989553
 10
-887.5499758996
 20
237.730467522
  0
ARC
  5
186
330
1F
100
AcDbEntity
  8
0
  6
Continuous
 62
     7
370
    25
100
AcDbCircle
 10
-791.9731938667
 20
318.2913849212
 30
0.0
 40
127.9999307039032
100
AcDbArc
 50
220.1207151513
 51
262.0718701364
  0
ARC
  5
187
330
1F
100
AcDbEntity
  8
0
  6
Continuous
 62
     7
370
    25
100
AcDbCircle
 10
-791.9731938667
 20
318.2913849212
 30
0.0
 40
124.999930703903
100
AcDbArc
 50
220.1272755722
 51
262.0718701364
  0
LINE
  5
188
330
1F
100
AcDbEntity
  8
0
  6
Continuous
 62
     7
370
    25
100
AcDbLine
 10
-809.6283303858
 20
191.5148949292
 30
0.0
 11
-809.2145378996
 21
194.486220522
 31
0.0
  0
ARC
  5
189
330
1F
100
AcDbEntity
  8
0
  6
Continuous
 62
     7
370
    25
100
AcDbCircle
 10
-906.5375697724
 20
143.291447522
 30
0.0
 40
124.9999912642762
100
AcDbArc
 50
115.5929116477
 51
244.4070883523
  0
ARC
  5
18A
330
1F
100
AcDbEntity
  8
0
  6
Continuous
 62
     7
370
    25
100
AcDbCircle
 10
-906.5375697724
 20
143.291447522
 30
0.0
 40
121.9999912642761
100
AcDbArc
 50
115.6339596125
 51
244.3660403967
  0
ARC
  5
18B
330
1F
100
AcDbEntity
  8
0
  6
Continuous
 62
     7
370
    25
100
AcDbCircle
 10
-811.973162113
 20
174.6773800465
 30
0.0
 40
17.00000421330677
100
AcDbArc
 50
0.0000099564
 51
82.0718461204
  0
ARC
  5
18C
330
1F
100
AcDbEntity
  8
0
  6
Continuous
 62
     7
370
    25
100
AcDbCircle
 10
-811.973162113
 20
174.6773800465
 30
0.0
 40
20.00000421330673
100
AcDbArc
 50
0.0000099564
 51
82.0718497228
  0
LINE
  5
18D
330
1F
100
AcDbEntity
  8
0
  6
Continuous
 62
     7
370
    25
100
AcDbLine
 10
-794.9731578996
 20
174.6773830007
 30
0.0
 11
-791.9731578996
 21
174.677383522
 31
0.0
  0
CIRCLE
  5
18E
330
1F
100
AcDbEntity
  8
0
  6
Continuous
 62
     7
370
    25
100
AcDbCircle
 10
-851.9731578996
 20
143.2914473746
 30
0.0
 40
4.699999999999989
  0
CIRCLE
  5
18F
330
1F
100
AcDbEntity
  8
0
  6
Continuous
 62
     7
370
    25
100
AcDbCircle
 10
-941.9731578996
 20
158.2914473746
 30
0.0
 40
4.69999999999996
  0
CIRCLE
  5
190
330
1F
100
AcDbEntity
  8
0
  6
Continuous
 62
     7
370
    25
100
AcDbCircle
 10
-941.9731578996
 20
128.2914473746
 30
0.0
 40
4.700000000000003
  0
LINE
  5
191
330
1F
100
AcDbEntity
  8
0
  6
Continuous
 62
     7
370
    25
100
AcDbLine
 10
-794.9731578996
 20
111.905510522
 30
0.0
 11
-794.9731578996
 21
174.6773830007
 31
0.0
  0
ARC
  5
192
330
1F
100
AcDbEntity
  8
0
  6
Continuous
 62
     7
370
    25
100
AcDbCircle
 10
-811.973162113
 20
111.9055139974
 30
0.0
 40
17.00000421330687
100
AcDbArc
 50
277.9281502772
 51
359.9999882865
  0
LINE
  5
193
330
1F
100
AcDbEntity
  8
0
  6
Continuous
 62
     7
370
    25
100
AcDbLine
 10
-791.9731578996
 20
174.677383522
 30
0.0
 11
-791.9731578996
 21
111.905510522
 31
0.0
  0
LINE
  5
194
330
1F
100
AcDbEntity
  8
0
  6
Continuous
 62
     7
370
    25
100
AcDbLine
 10
-794.9731578996
 20
111.905510522
 30
0.0
 11
-791.9731578996
 21
111.905510522
 31
0.0
  0
ARC
  5
195
330
1F
100
AcDbEntity
  8
0
  6
Continuous
 62
     7
370
    25
100
AcDbCircle
 10
-811.973162113
 20
111.9055139974
 30
0.0
 40
20.0000042133067
100
AcDbArc
 50
277.9281502772
 51
359.9999900436
  0
ARC
  5
196
330
1F
100
AcDbEntity
  8
0
  6
Continuous
 62
     7
370
    25
100
AcDbCircle
 10
1362.5275337991
 20
197.2896517149
 30
0.0
 40
63.47444413198325
100
AcDbArc
 50
67.7246621443
 51
140.422626138
  0
LWPOLYLINE
  5
197
330
1F
100
AcDbEntity
  8
0
  6
Continuous
 62
     7
370
    25
100
AcDbPolyline
 90
        7
 70
   128
 43
0.0
 10
1386.5880221004
 20
256.0271862271
 10
1386.5194325643
 20
255.8726497259
 10
1386.3214321432
 20
255.4264976197
 10
1386.0163509473
 20
254.7389290491
 10
1385.6385084148
 20
253.8871476365
 10
1385.3890407672
 20
253.324622595
 10
1385.3709140115
 20
253.2837440242
  0
ARC
  5
198
330
1F
100
AcDbEntity
  8
0
  6
Continuous
 62
     7
370
    25
100
AcDbCircle
 10
1362.5275337991
 20
197.2896517149
 30
0.0
 40
60.47444413198316
100
AcDbArc
 50
67.8064786741
 51
140.4360199895
  0
LWPOLYLINE
  5
199
330
1F
100
AcDbEntity
  8
0
  6
Continuous
 62
     7
370
    25
100
AcDbPolyline
 90
        7
 70
   128
 43
0.0
 10
1313.6036601004
 20
237.7304682271
 10
1313.7334880978
 20
237.6220996596
 10
1314.1083398626
 20
237.309219559
 10
1314.6859707967
 20
236.8271193317
 10
1315.4012820751
 20
236.2301681136
 10
1315.8216227116
 20
235.879410653
 10
1315.9069491711
 20
235.8082119426
  0
ARC
  5
19A
330
1F
100
AcDbEntity
  8
0
  6
Continuous
 62
     7
370
    25
100
AcDbCircle
 10
1218.0268780674
 20
318.2913856263
 30
0.0
 40
124.999930703903
100
AcDbArc
 50
277.9281298636
 51
319.8727244278
  0
ARC
  5
19B
330
1F
100
AcDbEntity
  8
0
  6
Continuous
 62
     7
370
    25
100
AcDbCircle
 10
1218.0268780674
 20
318.2913856263
 30
0.0
 40
127.9999307039029
100
AcDbArc
 50
277.928130342
 51
319.8792848399
  0
LINE
  5
19C
330
1F
100
AcDbEntity
  8
0
  6
Continuous
 62
     7
370
    25
100
AcDbLine
 10
1235.2682221004
 20
194.4862212271
 30
0.0
 11
1235.6820156452
 21
191.5148957818
 31
0.0
  0
ARC
  5
19D
330
1F
100
AcDbEntity
  8
0
  6
Continuous
 62
     7
370
    25
100
AcDbCircle
 10
1218.0268780674
 20
-31.7084901721
 30
0.0
 40
127.9999307039032
100
AcDbArc
 50
40.1207151513
 51
82.0718701364
  0
LWPOLYLINE
  5
19E
330
1F
100
AcDbEntity
  8
0
  6
Continuous
 62
     7
370
    25
100
AcDbPolyline
 90
        7
 70
   128
 43
0.0
 10
1315.9069491838
 20
50.7746834966
 10
1315.8216227811
 20
50.7034848346
 10
1315.4012820849
 20
50.3527273289
 10
1314.6859708026
 20
49.7557761155
 10
1314.1083398654
 20
49.273675892
 10
1313.7334880985
 20
48.9607957939
 10
1313.6036601004
 20
48.8524272271
  0
ARC
  5
19F
330
1F
100
AcDbEntity
  8
0
  6
Continuous
 62
     7
370
    25
100
AcDbCircle
 10
1218.0268780674
 20
-31.7084901721
 30
0.0
 40
124.9999307039029
100
AcDbArc
 50
40.1272755722
 51
82.0718701364
  0
LINE
  5
1A0
330
1F
100
AcDbEntity
  8
0
  6
Continuous
 62
     7
370
    25
100
AcDbLine
 10
1235.6820145865
 20
95.0679998199
 30
0.0
 11
1235.2682221004
 21
92.0966742271
 31
0.0
  0
ARC
  5
1A1
330
1F
100
AcDbEntity
  8
0
  6
Continuous
 62
     7
370
    25
100
AcDbCircle
 10
1362.5275344786
 20
89.2932432393
 30
0.0
 40
60.47444433711911
100
AcDbArc
 50
219.5639792539
 51
292.1935205693
  0
LWPOLYLINE
  5
1A2
330
1F
100
AcDbEntity
  8
0
  6
Continuous
 62
     7
370
    25
100
AcDbPolyline
 90
        7
 70
   128
 43
0.0
 10
1386.5880221004
 20
30.5557082271
 10
1386.5194325653
 20
30.7102447288
 10
1386.3214321471
 20
31.1563968362
 10
1386.0163509557
 20
31.8439654087
 10
1385.6385084287
 20
32.6957468238
 10
1385.3890407824
 20
33.2582718721
 10
1385.3709140291
 20
33.2991504384
  0
ARC
  5
1A3
330
1F
100
AcDbEntity
  8
0
  6
Continuous
 62
     7
370
    25
100
AcDbCircle
 10
1362.5275344786
 20
89.2932432393
 30
0.0
 40
63.47444433711912
100
AcDbArc
 50
219.5773731234
 51
292.2753371171
  0
ARC
  5
1A4
330
1F
100
AcDbEntity
  8
0
  6
Continuous
 62
     7
370
    25
100
AcDbCircle
 10
1332.5912539731
 20
143.2914472271
 30
0.0
 40
124.9999912642762
100
AcDbArc
 50
295.5929116477
 51
64.4070883523
  0
ARC
  5
1A5
330
1F
100
AcDbEntity
  8
0
  6
Continuous
 62
     7
370
    25
100
AcDbCircle
 10
1332.5912539731
 20
143.2914472271
 30
0.0
 40
121.9999912642762
100
AcDbArc
 50
295.6339596125
 51
64.3660403967
  0
ARC
  5
1A6
330
1F
100
AcDbEntity
  8
0
  6
Continuous
 62
     7
370
    25
100
AcDbCircle
 10
1238.0268463137
 20
111.9055147026
 30
0.0
 40
17.00000421330677
100
AcDbArc
 50
180.0000099564
 51
262.0718461204
  0
LINE
  5
1A7
330
1F
100
AcDbEntity
  8
0
  6
Continuous
 62
     7
370
    25
100
AcDbLine
 10
1221.0268421004
 20
174.6773842271
 30
0.0
 11
1221.0268421004
 21
111.9055117484
 31
0.0
  0
ARC
  5
1A8
330
1F
100
AcDbEntity
  8
0
  6
Continuous
 62
     7
370
    25
100
AcDbCircle
 10
1238.0268463137
 20
174.6773807517
 30
0.0
 40
17.00000421330687
100
AcDbArc
 50
97.9281502772
 51
179.9999882865
  0
CIRCLE
  5
1A9
330
1F
100
AcDbEntity
  8
0
  6
Continuous
 62
     7
370
    25
100
AcDbCircle
 10
1368.0268421004
 20
128.2914473746
 30
0.0
 40
4.699999999999989
  0
CIRCLE
  5
1AA
330
1F
100
AcDbEntity
  8
0
  6
Continuous
 62
     7
370
    25
100
AcDbCircle
 10
1368.0268421004
 20
158.2914473746
 30
0.0
 40
4.69999999999996
  0
CIRCLE
  5
1AB
330
1F
100
AcDbEntity
  8
0
  6
Continuous
 62
     7
370
    25
100
AcDbCircle
 10
1278.0268421004
 20
143.2914473746
 30
0.0
 40
4.699999999999989
  0
LINE
  5
1AC
330
1F
100
AcDbEntity
  8
0
  6
Continuous
 62
     7
370
    25
100
AcDbLine
 10
1221.0268421004
 20
174.6773842271
 30
0.0
 11
1218.0268421004
 21
174.6773842271
 31
0.0
  0
ARC
  5
1AD
330
1F
100
AcDbEntity
  8
0
  6
Continuous
 62
     7
370
    25
100
AcDbCircle
 10
1238.0268463137
 20
174.6773807517
 30
0.0
 40
20.00000421330681
100
AcDbArc
 50
97.9281502772
 51
179.9999900436
  0
LINE
  5
1AE
330
1F
100
AcDbEntity
  8
0
  6
Continuous
 62
     7
370
    25
100
AcDbLine
 10
1221.0268421004
 20
111.9055117484
 30
0.0
 11
1218.0268421004
 21
111.9055112271
 31
0.0
  0
LINE
  5
1AF
330
1F
100
AcDbEntity
  8
0
  6
Continuous
 62
     7
370
    25
100
AcDbLine
 10
1218.0268421004
 20
111.9055112271
 30
0.0
 11
1218.0268421004
 21
174.6773842271
 31
0.0
  0
ARC
  5
1B0
330
1F
100
AcDbEntity
  8
0
  6
Continuous
 62
     7
370
    25
100
AcDbCircle
 10
1238.0268463137
 20
111.9055147026
 30
0.0
 40
20.00000421330681
100
AcDbArc
 50
180.0000099564
 51
262.0718497228
  0
LINE
  5
1B1
330
1F
100
AcDbEntity
  8
0
  6
Continuous
 62
     7
370
    25
100
AcDbLine
 10
186.0268421004
 20
267.7914473746
 30
0.0
 11
240.0268421004
 21
267.7914473746
 31
0.0
  0
LINE
  5
1B2
330
1F
100
AcDbEntity
  8
0
  6
Continuous
 62
     7
370
    25
100
AcDbLine
 10
241.0268421004
 20
264.7914473746
 30
0.0
 11
240.0268421004
 21
267.7914473746
 31
0.0
  0
LINE
  5
1B3
330
1F
100
AcDbEntity
  8
0
  6
Continuous
 62
     7
370
    25
100
AcDbLine
 10
241.0268421004
 20
264.7914473746
 30
0.0
 11
185.0268421004
 21
264.7914473746
 31
0.0
  0
LINE
  5
1B4
330
1F
100
AcDbEntity
  8
0
  6
Continuous
 62
     7
370
    25
100
AcDbLine
 10
186.0268421004
 20
267.7914473746
 30
0.0
 11
185.0268421004
 21
264.7914473746
 31
0.0
  0
LINE
  5
1B5
330
1F
100
AcDbEntity
  8
0
  6
Continuous
 62
     7
370
    25
100
AcDbLine
 10
243.0268421004
 20
322.7914473746
 30
0.0
 11
240.0268421004
 21
321.7914473746
 31
0.0
  0
LINE
  5
1B6
330
1F
100
AcDbEntity
  8
0
  6
Continuous
 62
     7
370
    25
100
AcDbLine
 10
241.0268421004
 20
324.7914473746
 30
0.0
 11
240.0268421004
 21
321.7914473746
 31
0.0
  0
ARC
  5
1B7
330
1F
100
AcDbEntity
  8
0
  6
Continuous
 62
     7
370
    25
100
AcDbCircle
 10
241.0268421004
 20
322.7914473746
 30
0.0
 40
2.000000000000028
100
AcDbArc
 50
0.0
 51
90.0
  0
LINE
  5
1B8
330
1F
100
AcDbEntity
  8
0
  6
Continuous
 62
     7
370
    25
100
AcDbLine
 10
240.0268421004
 20
321.7914473746
 30
0.0
 11
186.0268421004
 21
321.7914473746
 31
0.0
  0
LINE
  5
1B9
330
1F
100
AcDbEntity
  8
0
  6
Continuous
 62
     7
370
    25
100
AcDbLine
 10
186.0268421004
 20
321.7914473746
 30
0.0
 11
185.0268421004
 21
324.7914473746
 31
0.0
  0
LINE
  5
1BA
330
1F
100
AcDbEntity
  8
0
  6
Continuous
 62
     7
370
    25
100
AcDbLine
 10
185.0268421004
 20
324.7914473746
 30
0.0
 11
241.0268421004
 21
324.7914473746
 31
0.0
  0
LINE
  5
1BB
330
1F
100
AcDbEntity
  8
0
  6
Continuous
 62
     7
370
    25
100
AcDbLine
 10
243.0268421004
 20
266.7914473746
 30
0.0
 11
240.0268421004
 21
267.7914473746
 31
0.0
  0
ARC
  5
1BC
330
1F
100
AcDbEntity
  8
0
  6
Continuous
 62
     7
370
    25
100
AcDbCircle
 10
241.0268421004
 20
266.7914473746
 30
0.0
 40
2.000000000000028
100
AcDbArc
 50
270.0
 51
0.0
  0
LINE
  5
1BD
330
1F
100
AcDbEntity
  8
0
  6
Continuous
 62
     7
370
    25
100
AcDbLine
 10
186.0268421004
 20
321.7914473746
 30
0.0
 11
186.0268421004
 21
267.7914473746
 31
0.0
  0
LINE
  5
1BE
330
1F
100
AcDbEntity
  8
0
  6
Continuous
 62
     7
370
    25
100
AcDbLine
 10
186.0268421004
 20
267.7914473746
 30
0.0
 11
183.0268421004
 21
266.7914473746
 31
0.0
  0
LINE
  5
1BF
330
1F
100
AcDbEntity
  8
0
  6
Continuous
 62
     7
370
    25
100
AcDbLine
 10
183.0268421004
 20
266.7914473746
 30
0.0
 11
183.0268421004
 21
322.7914473746
 31
0.0
  0
LINE
  5
1C0
330
1F
100
AcDbEntity
  8
0
  6
Continuous
 62
     7
370
    25
100
AcDbLine
 10
186.0268421004
 20
321.7914473746
 30
0.0
 11
183.0268421004
 21
322.7914473746
 31
0.0
  0
ARC
  5
1C1
330
1F
100
AcDbEntity
  8
0
  6
Continuous
 62
     7
370
    25
100
AcDbCircle
 10
185.0268421004
 20
322.7914473746
 30
0.0
 40
2.0
100
AcDbArc
 50
90.0
 51
180.0
  0
ARC
  5
1C2
330
1F
100
AcDbEntity
  8
0
  6
Continuous
 62
     7
370
    25
100
AcDbCircle
 10
185.0268421004
 20
266.7914473746
 30
0.0
 40
2.0
100
AcDbArc
 50
180.0
 51
270.0
  0
LINE
  5
1C3
330
1F
100
AcDbEntity
  8
0
  6
Continuous
 62
     7
370
    25
100
AcDbLine
 10
243.0268421004
 20
322.7914473746
 30
0.0
 11
243.0268421004
 21
266.7914473746
 31
0.0
  0
LINE
  5
1C4
330
1F
100
AcDbEntity
  8
0
  6
Continuous
 62
     7
370
    25
100
AcDbLine
 10
240.0268421004
 20
267.7914473746
 30
0.0
 11
240.0268421004
 21
321.7914473746
 31
0.0
  0
CIRCLE
  5
1C5
330
1F
100
AcDbEntity
  8
0
  6
Continuous
 62
     7
370
    25
100
AcDbCircle
 10
213.0268421004
 20
294.7914473746
 30
0.0
 40
1.0
  0
LINE
  5
1C6
330
1F
100
AcDbEntity
  8
0
  6
Continuous
 62
     7
370
    25
100
AcDbLine
 10
240.0268421004
 20
18.7914473746
 30
0.0
 11
186.0268421004
 21
18.7914473746
 31
0.0
  0
LINE
  5
1C7
330
1F
100
AcDbEntity
  8
0
  6
Continuous
 62
     7
370
    25
100
AcDbLine
 10
186.0268421004
 20
18.7914473746
 30
0.0
 11
185.0268421004
 21
21.7914473746
 31
0.0
  0
LINE
  5
1C8
330
1F
100
AcDbEntity
  8
0
  6
Continuous
 62
     7
370
    25
100
AcDbLine
 10
185.0268421004
 20
21.7914473746
 30
0.0
 11
241.0268421004
 21
21.7914473746
 31
0.0
  0
LINE
  5
1C9
330
1F
100
AcDbEntity
  8
0
  6
Continuous
 62
     7
370
    25
100
AcDbLine
 10
241.0268421004
 20
21.7914473746
 30
0.0
 11
240.0268421004
 21
18.7914473746
 31
0.0
  0
LINE
  5
1CA
330
1F
100
AcDbEntity
  8
0
  6
Continuous
 62
     7
370
    25
100
AcDbLine
 10
186.0268421004
 20
-35.2085526254
 30
0.0
 11
240.0268421004
 21
-35.2085526254
 31
0.0
  0
LINE
  5
1CB
330
1F
100
AcDbEntity
  8
0
  6
Continuous
 62
     7
370
    25
100
AcDbLine
 10
241.0268421004
 20
-38.2085526254
 30
0.0
 11
240.0268421004
 21
-35.2085526254
 31
0.0
  0
LINE
  5
1CC
330
1F
100
AcDbEntity
  8
0
  6
Continuous
 62
     7
370
    25
100
AcDbLine
 10
241.0268421004
 20
-38.2085526254
 30
0.0
 11
185.0268421004
 21
-38.2085526254
 31
0.0
  0
LINE
  5
1CD
330
1F
100
AcDbEntity
  8
0
  6
Continuous
 62
     7
370
    25
100
AcDbLine
 10
186.0268421004
 20
-35.2085526254
 30
0.0
 11
185.0268421004
 21
-38.2085526254
 31
0.0
  0
ARC
  5
1CE
330
1F
100
AcDbEntity
  8
0
  6
Continuous
 62
     7
370
    25
100
AcDbCircle
 10
185.0268421004
 20
-36.2085526254
 30
0.0
 40
2.000000000000007
100
AcDbArc
 50
180.0
 51
270.0
  0
LINE
  5
1CF
330
1F
100
AcDbEntity
  8
0
  6
Continuous
 62
     7
370
    25
100
AcDbLine
 10
186.0268421004
 20
-35.2085526254
 30
0.0
 11
183.0268421004
 21
-36.2085526254
 31
0.0
  0
LINE
  5
1D0
330
1F
100
AcDbEntity
  8
0
  6
Continuous
 62
     7
370
    25
100
AcDbLine
 10
243.0268421004
 20
-36.2085526254
 30
0.0
 11
240.0268421004
 21
-35.2085526254
 31
0.0
  0
ARC
  5
1D1
330
1F
100
AcDbEntity
  8
0
  6
Continuous
 62
     7
370
    25
100
AcDbCircle
 10
241.0268421004
 20
-36.2085526254
 30
0.0
 40
2.000000000000028
100
AcDbArc
 50
270.0
 51
0.0
  0
LINE
  5
1D2
330
1F
100
AcDbEntity
  8
0
  6
Continuous
 62
     7
370
    25
100
AcDbLine
 10
186.0268421004
 20
18.7914473746
 30
0.0
 11
186.0268421004
 21
-35.2085526254
 31
0.0
  0
LINE
  5
1D3
330
1F
100
AcDbEntity
  8
0
  6
Continuous
 62
     7
370
    25
100
AcDbLine
 10
183.0268421004
 20
-36.2085526254
 30
0.0
 11
183.0268421004
 21
19.7914473746
 31
0.0
  0
LINE
  5
1D4
330
1F
100
AcDbEntity
  8
0
  6
Continuous
 62
     7
370
    25
100
AcDbLine
 10
186.0268421004
 20
18.7914473746
 30
0.0
 11
183.0268421004
 21
19.7914473746
 31
0.0
  0
LINE
  5
1D5
330
1F
100
AcDbEntity
  8
0
  6
Continuous
 62
     7
370
    25
100
AcDbLine
 10
243.0268421004
 20
19.7914473746
 30
0.0
 11
243.0268421004
 21
-36.2085526254
 31
0.0
  0
LINE
  5
1D6
330
1F
100
AcDbEntity
  8
0
  6
Continuous
 62
     7
370
    25
100
AcDbLine
 10
240.0268421004
 20
-35.2085526254
 30
0.0
 11
240.0268421004
 21
18.7914473746
 31
0.0
  0
LINE
  5
1D7
330
1F
100
AcDbEntity
  8
0
  6
Continuous
 62
     7
370
    25
100
AcDbLine
 10
243.0268421004
 20
19.7914473746
 30
0.0
 11
240.0268421004
 21
18.7914473746
 31
0.0
  0
ARC
  5
1D8
330
1F
100
AcDbEntity
  8
0
  6
Continuous
 62
     7
370
    25
100
AcDbCircle
 10
185.0268421004
 20
19.7914473746
 30
0.0
 40
2.000000000000004
100
AcDbArc
 50
90.0
 51
180.0
  0
ARC
  5
1D9
330
1F
100
AcDbEntity
  8
0
  6
Continuous
 62
     7
370
    25
100
AcDbCircle
 10
241.0268421004
 20
19.7914473746
 30
0.0
 40
2.000000000000028
100
AcDbArc
 50
0.0
 51
90.0
  0
CIRCLE
  5
1DA
330
1F
100
AcDbEntity
  8
0
  6
Continuous
 62
     7
370
    25
100
AcDbCircle
 10
213.0268421004
 20
-8.2085526254
 30
0.0
 40
1.0
  0
CIRCLE
  5
1DB
330
1F
100
AcDbEntity
  8
0
  6
Continuous
 62
     7
370
    25
100
AcDbCircle
 10
113.0268421004
 20
143.2914473746
 30
0.0
 40
19.99999999999997
  0
CIRCLE
  5
1DC
330
1F
100
AcDbEntity
  8
0
  6
Continuous
 62
     7
370
    25
100
AcDbCircle
 10
613.0268421003
 20
143.2914473746
 30
0.0
 40
20.00000000000001
  0
CIRCLE
  5
1DD
330
1F
100
AcDbEntity
  8
0
  6
Continuous
 62
     7
370
    25
100
AcDbCircle
 10
313.0268421004
 20
143.2914473746
 30
0.0
 40
19.99999999999999
  0
CIRCLE
  5
1DE
330
1F
100
AcDbEntity
  8
0
  6
Continuous
 62
     7
370
    25
100
AcDbCircle
 10
-186.9731578996
 20
143.2914473746
 30
0.0
 40
20.00000000000001
  0
CIRCLE
  5
1DF
330
1F
100
AcDbEntity
  8
0
  6
Continuous
 62
     7
370
    25
100
AcDbCircle
 10
113.0268421004
 20
143.2914473746
 30
0.0
 40
13.36655020039051
  0
CIRCLE
  5
1E0
330
1F
100
AcDbEntity
  8
0
  6
Continuous
 62
     7
370
    25
100
AcDbCircle
 10
113.0268421004
 20
143.2914473746
 30
0.0
 40
13.7
  0
CIRCLE
  5
1E1
330
1F
100
AcDbEntity
  8
0
  6
Continuous
 62
     7
370
    25
100
AcDbCircle
 10
-186.9731578996
 20
143.2914473746
 30
0.0
 40
13.3665502003905
  0
CIRCLE
  5
1E2
330
1F
100
AcDbEntity
  8
0
  6
Continuous
 62
     7
370
    25
100
AcDbCircle
 10
-186.9731578996
 20
143.2914473746
 30
0.0
 40
13.7
  0
CIRCLE
  5
1E3
330
1F
100
AcDbEntity
  8
0
  6
Continuous
 62
     7
370
    25
100
AcDbCircle
 10
613.0268421003
 20
143.2914473746
 30
0.0
 40
13.3665502003905
  0
CIRCLE
  5
1E4
330
1F
100
AcDbEntity
  8
0
  6
Continuous
 62
     7
370
    25
100
AcDbCircle
 10
613.0268421003
 20
143.2914473746
 30
0.0
 40
13.7
  0
CIRCLE
  5
1E5
330
1F
100
AcDbEntity
  8
0
  6
Continuous
 62
     7
370
    25
100
AcDbCircle
 10
313.0268421004
 20
143.2914473746
 30
0.0
 40
13.36655020039054
  0
CIRCLE
  5
1E6
330
1F
100
AcDbEntity
  8
0
  6
Continuous
 62
     7
370
    25
100
AcDbCircle
 10
313.0268421004
 20
143.2914473746
 30
0.0
 40
13.7
  0
LINE
  5
1E7
330
1F
100
AcDbEntity
  8
0
  6
Continuous
 62
     7
370
    25
100
AcDbLine
 10
223.7768421004
 20
337.2914473746
 30
0.0
 11
202.2768421004
 21
337.2914473746
 31
0.0
  0
LINE
  5
1E8
330
1F
100
AcDbEntity
  8
0
  6
Continuous
 62
     7
370
    25
100
AcDbLine
 10
238.0268421004
 20
33.2914473746
 30
0.0
 11
216.2764574622
 21
33.2914473746
 31
0.0
  0
LINE
  5
1E9
330
1F
100
AcDbEntity
  8
0
  6
Continuous
 62
     7
370
    25
100
AcDbLine
 10
209.7772267385
 20
33.2914473746
 30
0.0
 11
188.0268421004
 21
33.2914473746
 31
0.0
  0
LINE
  5
1EA
330
1F
100
AcDbEntity
  8
0
  6
Continuous
 62
     7
370
    25
100
AcDbLine
 10
238.0268421004
 20
253.2914473746
 30
0.0
 11
216.2764574622
 21
253.2914473746
 31
0.0
  0
LINE
  5
1EB
330
1F
100
AcDbEntity
  8
0
  6
Continuous
 62
     7
370
    25
100
AcDbLine
 10
209.7772267385
 20
253.2914473746
 30
0.0
 11
188.0268421004
 21
253.2914473746
 31
0.0
  0
LINE
  5
1EC
330
1F
100
AcDbEntity
  8
0
  6
Continuous
 62
     7
370
    25
100
AcDbLine
 10
229.5766765356
 20
33.2914473746
 30
0.0
 11
229.5766765356
 21
29.7914473746
 31
0.0
  0
ARC
  5
1ED
330
1F
100
AcDbEntity
  8
0
  6
Continuous
 62
     7
370
    25
100
AcDbCircle
 10
221.4819298112
 20
44.8776887557
 30
0.0
 40
17.12073606894907
100
AcDbArc
 50
275.6440159467
 51
298.2164428076
  0
ARC
  5
1EE
330
1F
100
AcDbEntity
  8
0
  6
Continuous
 62
     7
370
    25
100
AcDbCircle
 10
203.792842855
 20
42.7289485041
 30
0.0
 40
14.86271778655371
100
AcDbArc
 50
240.5129201757
 51
265.5107685333
  0
LINE
  5
1EF
330
1F
100
AcDbEntity
  8
0
  6
Continuous
 62
     7
370
    25
100
AcDbLine
 10
196.4770076651
 20
29.7914473746
 30
0.0
 11
196.4770076651
 21
33.2914473746
 31
0.0
  0
LINE
  5
1F0
330
1F
100
AcDbEntity
  8
0
  6
Continuous
 62
     7
370
    25
100
AcDbLine
 10
195.0268421004
 20
29.7914473746
 30
0.0
 11
195.0268421004
 21
27.7914473746
 31
0.0
  0
LINE
  5
1F1
330
1F
100
AcDbEntity
  8
0
  6
Continuous
 62
     7
370
    25
100
AcDbLine
 10
196.4770076651
 20
29.7914473746
 30
0.0
 11
195.0268421004
 21
29.7914473746
 31
0.0
  0
LINE
  5
1F2
330
1F
100
AcDbEntity
  8
0
  6
Continuous
 62
     7
370
    25
100
AcDbLine
 10
231.0268421004
 20
29.7914473746
 30
0.0
 11
229.5766765356
 21
29.7914473746
 31
0.0
  0
LINE
  5
1F3
330
1F
100
AcDbEntity
  8
0
  6
Continuous
 62
     7
370
    25
100
AcDbLine
 10
231.0268421004
 20
27.7914473746
 30
0.0
 11
231.0268421004
 21
29.7914473746
 31
0.0
  0
LINE
  5
1F4
330
1F
100
AcDbEntity
  8
0
  6
Continuous
 62
     7
370
    25
100
AcDbLine
 10
231.0268421004
 20
29.7914473746
 30
0.0
 11
231.0268421004
 21
33.2914473746
 31
0.0
  0
LINE
  5
1F5
330
1F
100
AcDbEntity
  8
0
  6
Continuous
 62
     7
370
    25
100
AcDbLine
 10
195.0268421004
 20
33.2914473746
 30
0.0
 11
195.0268421004
 21
29.7914473746
 31
0.0
  0
LINE
  5
1F6
330
1F
100
AcDbEntity
  8
0
  6
Continuous
 62
     7
370
    25
100
AcDbLine
 10
196.4770076651
 20
253.2914473746
 30
0.0
 11
196.4770076651
 21
256.7914473746
 31
0.0
  0
ARC
  5
1F7
330
1F
100
AcDbEntity
  8
0
  6
Continuous
 62
     7
370
    25
100
AcDbCircle
 10
204.5717543895
 20
241.7052059934
 30
0.0
 40
17.1207360689497
100
AcDbArc
 50
95.6440159467
 51
118.2164428076
  0
ARC
  5
1F8
330
1F
100
AcDbEntity
  8
0
  6
Continuous
 62
     7
370
    25
100
AcDbCircle
 10
222.2608413457
 20
243.853946245
 30
0.0
 40
14.86271778655263
100
AcDbArc
 50
60.5129201757
 51
85.5107685333
  0
LINE
  5
1F9
330
1F
100
AcDbEntity
  8
0
  6
Continuous
 62
     7
370
    25
100
AcDbLine
 10
229.5766765356
 20
256.7914473746
 30
0.0
 11
229.5766765356
 21
253.2914473746
 31
0.0
  0
LINE
  5
1FA
330
1F
100
AcDbEntity
  8
0
  6
Continuous
 62
     7
370
    25
100
AcDbLine
 10
231.0268421004
 20
256.7914473746
 30
0.0
 11
231.0268421004
 21
258.7914473746
 31
0.0
  0
LINE
  5
1FB
330
1F
100
AcDbEntity
  8
0
  6
Continuous
 62
     7
370
    25
100
AcDbLine
 10
229.5766765356
 20
256.7914473746
 30
0.0
 11
231.0268421004
 21
256.7914473746
 31
0.0
  0
LINE
  5
1FC
330
1F
100
AcDbEntity
  8
0
  6
Continuous
 62
     7
370
    25
100
AcDbLine
 10
195.0268421004
 20
256.7914473746
 30
0.0
 11
196.4770076651
 21
256.7914473746
 31
0.0
  0
LINE
  5
1FD
330
1F
100
AcDbEntity
  8
0
  6
Continuous
 62
     7
370
    25
100
AcDbLine
 10
195.0268421004
 20
258.7914473746
 30
0.0
 11
195.0268421004
 21
256.7914473746
 31
0.0
  0
LINE
  5
1FE
330
1F
100
AcDbEntity
  8
0
  6
Continuous
 62
     7
370
    25
100
AcDbLine
 10
195.0268421004
 20
256.7914473746
 30
0.0
 11
195.0268421004
 21
253.2914473746
 31
0.0
  0
LINE
  5
1FF
330
1F
100
AcDbEntity
  8
0
  6
Continuous
 62
     7
370
    25
100
AcDbLine
 10
231.0268421004
 20
253.2914473746
 30
0.0
 11
231.0268421004
 21
256.7914473746
 31
0.0
  0
LINE
  5
200
330
1F
100
AcDbEntity
  8
0
  6
Continuous
 62
     7
370
    25
100
AcDbLine
 10
188.0268421004
 20
27.7914473746
 30
0.0
 11
188.0268421004
 21
21.7914473746
 31
0.0
  0
LINE
  5
201
330
1F
100
AcDbEntity
  8
0
  6
Continuous
 62
     7
370
    25
100
AcDbLine
 10
238.0268421004
 20
27.7914473746
 30
0.0
 11
238.0268421004
 21
21.7914473746
 31
0.0
  0
LINE
  5
202
330
1F
100
AcDbEntity
  8
0
  6
Continuous
 62
     7
370
    25
100
AcDbLine
 10
188.0268421004
 20
27.7914473746
 30
0.0
 11
238.0268421004
 21
27.7914473746
 31
0.0
  0
LINE
  5
203
330
1F
100
AcDbEntity
  8
0
  6
Continuous
 62
     7
370
    25
100
AcDbLine
 10
238.0268421004
 20
258.7914473746
 30
0.0
 11
238.0268421004
 21
264.7914473746
 31
0.0
  0
LINE
  5
204
330
1F
100
AcDbEntity
  8
0
  6
Continuous
 62
     7
370
    25
100
AcDbLine
 10
238.0268421004
 20
258.7914473746
 30
0.0
 11
188.0268421004
 21
258.7914473746
 31
0.0
  0
LINE
  5
205
330
1F
100
AcDbEntity
  8
0
  6
Continuous
 62
     7
370
    25
100
AcDbLine
 10
188.0268421004
 20
258.7914473746
 30
0.0
 11
188.0268421004
 21
264.7914473746
 31
0.0
  0
LINE
  5
206
330
1F
100
AcDbEntity
  8
0
  6
Continuous
 62
     7
370
    25
100
AcDbLine
 10
-797.3219731059
 20
188.2914473746
 30
0.0
 11
-692.9731578996
 21
188.2914473746
 31
0.0
  0
LINE
  5
207
330
1F
100
AcDbEntity
  8
0
  6
Continuous
 62
     7
370
    25
100
AcDbLine
 10
-667.9731578996
 20
188.2914473746
 30
0.0
 11
1094.0268421004
 21
188.2914473746
 31
0.0
  0
LINE
  5
208
330
1F
100
AcDbEntity
  8
0
  6
Continuous
 62
     7
370
    25
100
AcDbLine
 10
1119.0268421004
 20
188.2914473746
 30
0.0
 11
1223.3756566514
 21
188.2914473746
 31
0.0
  0
LINE
  5
209
330
1F
100
AcDbEntity
  8
0
  6
Continuous
 62
     7
370
    25
100
AcDbLine
 10
1223.3756573066
 20
98.2914473746
 30
0.0
 11
1119.0268421004
 21
98.2914473746
 31
0.0
  0
LINE
  5
20A
330
1F
100
AcDbEntity
  8
0
  6
Continuous
 62
     7
370
    25
100
AcDbLine
 10
1094.0268421004
 20
98.2914473746
 30
0.0
 11
-667.9731578996
 21
98.2914473746
 31
0.0
  0
LINE
  5
20B
330
1F
100
AcDbEntity
  8
0
  6
Continuous
 62
     7
370
    25
100
AcDbLine
 10
-692.9731578996
 20
98.2914473746
 30
0.0
 11
-797.3219724507
 21
98.2914473746
 31
0.0
  0
LINE
  5
20C
330
1F
100
AcDbEntity
  8
0
  6
Continuous
 62
     8
370
    25
100
AcDbLine
 10
1106.5268421004
 20
173.2914473746
 30
0.0
 11
1094.0268421004
 21
173.2914473746
 31
0.0
  0
LINE
  5
20D
330
1F
100
AcDbEntity
  8
0
  6
Continuous
 62
     8
370
    25
100
AcDbLine
 10
1119.0268421004
 20
173.2914473746
 30
0.0
 11
1106.5268421004
 21
173.2914473746
 31
0.0
  0
LINE
  5
20E
330
1F
100
AcDbEntity
  8
0
  6
Continuous
 62
     8
370
    25
100
AcDbLine
 10
1106.5268421004
 20
113.2914473746
 30
0.0
 11
1094.0268421004
 21
113.2914473746
 31
0.0
  0
LINE
  5
20F
330
1F
100
AcDbEntity
  8
0
  6
Continuous
 62
     8
370
    25
100
AcDbLine
 10
1119.0268421004
 20
113.2914473746
 30
0.0
 11
1106.5268421004
 21
113.2914473746
 31
0.0
  0
LINE
  5
210
330
1F
100
AcDbEntity
  8
0
  6
Continuous
 62
     8
370
    25
100
AcDbLine
 10
-680.4731578996
 20
173.2914473746
 30
0.0
 11
-692.9731578996
 21
173.2914473746
 31
0.0
  0
LINE
  5
211
330
1F
100
AcDbEntity
  8
0
  6
Continuous
 62
     8
370
    25
100
AcDbLine
 10
-667.9731578996
 20
173.2914473746
 30
0.0
 11
-680.4731578996
 21
173.2914473746
 31
0.0
  0
LINE
  5
212
330
1F
100
AcDbEntity
  8
0
  6
Continuous
 62
     8
370
    25
100
AcDbLine
 10
-680.4731578996
 20
113.2914473746
 30
0.0
 11
-692.9731578996
 21
113.2914473746
 31
0.0
  0
LINE
  5
213
330
1F
100
AcDbEntity
  8
0
  6
Continuous
 62
     8
370
    25
100
AcDbLine
 10
-667.9731578996
 20
113.2914473746
 30
0.0
 11
-680.4731578996
 21
113.2914473746
 31
0.0
  0
LINE
  5
214
330
1F
100
AcDbEntity
  8
0
  6
Continuous
 62
     8
370
    25
100
AcDbLine
 10
205.6136534422
 20
-40.2085526254
 30
0.0
 11
233.0268421004
 21
-40.2085526254
 31
0.0
  0
LINE
  5
215
330
1F
100
AcDbEntity
  8
0
  6
Continuous
 62
     8
370
    25
100
AcDbLine
 10
193.0268421004
 20
-40.2085526254
 30
0.0
 11
205.6136534422
 21
-40.2085526254
 31
0.0
  0
LINE
  5
216
330
1F
100
AcDbEntity
  8
0
  6
Continuous
 62
     8
370
    25
100
AcDbLine
 10
207.9488078695
 20
-55.3389439438
 30
0.0
 11
226.7268421004
 21
-55.3389439438
 31
0.0
  0
LINE
  5
217
330
1F
100
AcDbEntity
  8
0
  6
Continuous
 62
     8
370
    25
100
AcDbLine
 10
199.3268421004
 20
-55.3389439438
 30
0.0
 11
207.9488078695
 21
-55.3389439438
 31
0.0
  0
LINE
  5
218
330
1F
100
AcDbEntity
  8
0
  6
Continuous
 62
     8
370
    25
100
AcDbLine
 10
208.0724041831
 20
-55.8764855615
 30
0.0
 11
226.3933923007
 21
-55.8764855615
 31
0.0
  0
LINE
  5
219
330
1F
100
AcDbEntity
  8
0
  6
Continuous
 62
     8
370
    25
100
AcDbLine
 10
199.6602919
 20
-55.8764855615
 30
0.0
 11
208.0724041831
 21
-55.8764855615
 31
0.0
  0
LINE
  5
21A
330
1F
100
AcDbEntity
  8
0
  6
Continuous
 62
     8
370
    25
100
AcDbLine
 10
228.5268421004
 20
325.7914473746
 30
0.0
 11
197.5268421004
 21
325.7914473746
 31
0.0
  0
LINE
  5
21B
330
1F
100
AcDbEntity
  8
0
  6
Continuous
 62
     8
370
    25
100
AcDbLine
 10
223.7768421004
 20
337.8765973935
 30
0.0
 11
202.2768421004
 21
337.8765973935
 31
0.0
  0
LINE
  5
21C
330
1F
100
AcDbEntity
  8
0
  6
Continuous
 62
     8
370
    25
100
AcDbLine
 10
223.3847584558
 20
338.439421335
 30
0.0
 11
202.6689257449
 21
338.439421335
 31
0.0
  0
LINE
  5
21D
330
1F
100
AcDbEntity
  8
0
  6
Continuous
 62
     8
370
    25
100
AcDbLine
 10
223.6768421004
 20
256.5414473746
 30
0.0
 11
202.3768421004
 21
256.5414473746
 31
0.0
  0
LINE
  5
21E
330
1F
100
AcDbEntity
  8
0
  6
Continuous
 62
     8
370
    25
100
AcDbLine
 10
205.4961548807
 20
30.0414473746
 30
0.0
 11
223.6768421004
 21
30.0414473746
 31
0.0
  0
LINE
  5
21F
330
1F
100
AcDbEntity
  8
0
  6
Continuous
 62
     8
370
    25
100
AcDbLine
 10
202.3768421004
 20
30.0414473746
 30
0.0
 11
205.4961548807
 21
30.0414473746
 31
0.0
  0
LINE
  5
220
330
1F
100
AcDbEntity
  8
0
  6
Continuous
 62
     8
370
    25
100
AcDbLine
 10
1221.0756882925
 20
185.2914473746
 30
0.0
 11
1119.0268421004
 21
185.2914473746
 31
0.0
  0
LINE
  5
221
330
1F
100
AcDbEntity
  8
0
  6
Continuous
 62
     8
370
    25
100
AcDbLine
 10
1094.0268421004
 20
185.2914473746
 30
0.0
 11
-667.9731578996
 21
185.2914473746
 31
0.0
  0
LINE
  5
222
330
1F
100
AcDbEntity
  8
0
  6
Continuous
 62
     8
370
    25
100
AcDbLine
 10
-692.9731578996
 20
185.2914473746
 30
0.0
 11
-795.0220045334
 21
185.2914473746
 31
0.0
  0
LINE
  5
223
330
1F
100
AcDbEntity
  8
0
  6
Continuous
 62
     8
370
    25
100
AcDbLine
 10
-795.0220040918
 20
101.2914473746
 30
0.0
 11
-692.9731578996
 21
101.2914473746
 31
0.0
  0
LINE
  5
224
330
1F
100
AcDbEntity
  8
0
  6
Continuous
 62
     8
370
    25
100
AcDbLine
 10
-667.9731578996
 20
101.2914473746
 30
0.0
 11
1094.0268421004
 21
101.2914473746
 31
0.0
  0
LINE
  5
225
330
1F
100
AcDbEntity
  8
0
  6
Continuous
 62
     8
370
    25
100
AcDbLine
 10
1119.0268421004
 20
101.2914473746
 30
0.0
 11
1221.0756887341
 21
101.2914473746
 31
0.0
  0
ENDSEC
  0
SECTION
  2
OBJECTS
  0
DICTIONARY
  5
C
330
0
100
AcDbDictionary
281
     1
  3
ACAD_GROUP
350
D
  3
ACAD_LAYOUT
350
1A
  3
ACAD_MLINESTYLE
350
17
  3
ACAD_PLOTSETTINGS
350
19
  3
ACAD_PLOTSTYLENAME
350
E
  3
ACAD_SCALELIST
350
47
  3
DWGPROPS
350
226
  0
DICTIONARY
  5
D
102
{ACAD_REACTORS
330
C
102
}
330
C
100
AcDbDictionary
281
     1
  0
DICTIONARY
  5
1A
102
{ACAD_REACTORS
330
C
102
}
330
C
100
AcDbDictionary
281
     1
  3
Layout1
350
1E
  3
Layout2
350
26
  3
Model
350
22
  0
DICTIONARY
  5
17
102
{ACAD_REACTORS
330
C
102
}
330
C
100
AcDbDictionary
281
     1
  3
Standard
350
18
  0
DICTIONARY
  5
19
102
{ACAD_REACTORS
330
C
102
}
330
C
100
AcDbDictionary
281
     1
  0
ACDBDICTIONARYWDFLT
  5
E
102
{ACAD_REACTORS
330
C
102
}
330
C
100
AcDbDictionary
281
     1
  3
Normal
350
F
100
AcDbDictionaryWithDefault
340
F
  0
DICTIONARY
  5
47
102
{ACAD_REACTORS
330
C
102
}
330
C
100
AcDbDictionary
281
     1
  3
A0
350
48
  3
A1
350
49
  3
A2
350
4A
  3
A3
350
4B
  3
A4
350
4C
  3
A5
350
4D
  3
A6
350
4E
  3
A7
350
4F
  3
A8
350
50
  3
A9
350
51
  3
B0
350
52
  3
B1
350
53
  3
B2
350
54
  3
B3
350
55
  3
B4
350
56
  3
B5
350
57
  3
B6
350
58
  3
B7
350
59
  3
B8
350
5A
  3
B9
350
5B
  3
C0
350
5C
  3
C1
350
5D
  3
C2
350
5E
  3
C3
350
5F
  3
C4
350
60
  3
C5
350
61
  3
C6
350
62
  3
C7
350
63
  3
C8
350
64
  3
C9
350
65
  3
D0
350
66
  3
D1
350
67
  3
D2
350
68
  0
XRECORD
  5
226
102
{ACAD_REACTORS
330
C
102
}
330
C
100
AcDbXrecord
280
     1
  1
DWGPROPS COOKIE
  2

  3

  4

  6

  7

  8
Swing
  9

300
=
301
=
302
=
303
=
304
=
305
=
306
=
307
=
308
=
309
=
 40
0.0
 41
2459536.56328213
 42
2459536.563282315
  1

 90
        0
  0
LAYOUT
  5
1E
102
{ACAD_REACTORS
330
1A
102
}
330
1A
100
AcDbPlotSettings
  1

  2
none_device
  4

  6

 40
0.0
 41
0.0
 42
0.0
 43
0.0
 44
0.0
 45
0.0
 46
0.0
 47
0.0
 48
0.0
 49
0.0
140
0.0
141
0.0
142
1.0
143
1.0
 70
   688
 72
     1
 73
     0
 74
     5
  7

 75
    16
147
1.0
148
0.0
149
0.0
100
AcDbLayout
  1
Layout1
 70
     1
 71
     1
 10
0.0
 20
0.0
 11
420.0
 21
297.0
 12
0.0
 22
0.0
 32
0.0
 14
1.0000000000E+20
 24
1.0000000000E+20
 34
1.0000000000E+20
 15
-1.0000000000E+20
 25
-1.0000000000E+20
 35
-1.0000000000E+20
146
0.0
 13
0.0
 23
0.0
 33
0.0
 16
1.0
 26
0.0
 36
0.0
 17
0.0
 27
1.0
 37
0.0
 76
     0
330
1B
  0
LAYOUT
  5
26
102
{ACAD_REACTORS
330
1A
102
}
330
1A
100
AcDbPlotSettings
  1

  2
none_device
  4

  6

 40
0.0
 41
0.0
 42
0.0
 43
0.0
 44
0.0
 45
0.0
 46
0.0
 47
0.0
 48
0.0
 49
0.0
140
0.0
141
0.0
142
1.0
143
1.0
 70
   688
 72
     1
 73
     0
 74
     5
  7

 75
    16
147
1.0
148
0.0
149
0.0
100
AcDbLayout
  1
Layout2
 70
     1
 71
     2
 10
0.0
 20
0.0
 11
0.0
 21
0.0
 12
0.0
 22
0.0
 32
0.0
 14
0.0
 24
0.0
 34
0.0
 15
0.0
 25
0.0
 35
0.0
146
0.0
 13
0.0
 23
0.0
 33
0.0
 16
1.0
 26
0.0
 36
0.0
 17
0.0
 27
1.0
 37
0.0
 76
     0
330
23
  0
LAYOUT
  5
22
102
{ACAD_REACTORS
330
1A
102
}
330
1A
100
AcDbPlotSettings
  1

  2
none_device
  4
Letter_(8.50_x_11.00_Inches)
  6

 40
6.35
 41
6.35
 42
6.35000508
 43
6.35000508
 44
215.9
 45
279.4
 46
0.0
 47
0.0
 48
0.0
 49
0.0
140
0.0
141
0.0
142
1.0
143
1.0
 70
  1712
 72
     1
 73
     0
 74
     0
  7

 75
     0
147
1.0
148
0.0
149
0.0
100
AcDbLayout
  1
Model
 70
     1
 71
     0
 10
0.0
 20
0.0
 11
431.8
 21
279.4
 12
0.0
 22
0.0
 32
0.0
 14
0.0
 24
0.0
 34
0.0
 15
431.8
 25
279.4
 35
0.0
146
0.0
 13
0.0
 23
0.0
 33
0.0
 16
1.0
 26
0.0
 36
0.0
 17
0.0
 27
1.0
 37
0.0
 76
     0
330
1F
331
29
  0
MLINESTYLE
  5
18
102
{ACAD_REACTORS
330
17
102
}
330
17
100
AcDbMlineStyle
  2
Standard
 70
     0
  3

 62
   256
 51
90.0
 52
90.0
 71
     2
 49
0.5
 62
   256
  6
BYLAYER
 49
-0.5
 62
   256
  6
BYLAYER
  0
ACDBPLACEHOLDER
  5
F
102
{ACAD_REACTORS
330
E
102
}
330
E
  0
SCALE
  5
48
102
{ACAD_REACTORS
330
47
102
}
330
47
100
AcDbScale
 70
     0
300
1:1
140
1.0
141
1.0
290
     1
  0
SCALE
  5
49
102
{ACAD_REACTORS
330
47
102
}
330
47
100
AcDbScale
 70
     0
300
1:2
140
1.0
141
2.0
290
     0
  0
SCALE
  5
4A
102
{ACAD_REACTORS
330
47
102
}
330
47
100
AcDbScale
 70
     0
300
1:4
140
1.0
141
4.0
290
     0
  0
SCALE
  5
4B
102
{ACAD_REACTORS
330
47
102
}
330
47
100
AcDbScale
 70
     0
300
1:5
140
1.0
141
5.0
290
     0
  0
SCALE
  5
4C
102
{ACAD_REACTORS
330
47
102
}
330
47
100
AcDbScale
 70
     0
300
1:8
140
1.0
141
8.0
290
     0
  0
SCALE
  5
4D
102
{ACAD_REACTORS
330
47
102
}
330
47
100
AcDbScale
 70
     0
300
1:10
140
1.0
141
10.0
290
     0
  0
SCALE
  5
4E
102
{ACAD_REACTORS
330
47
102
}
330
47
100
AcDbScale
 70
     0
300
1:16
140
1.0
141
16.0
290
     0
  0
SCALE
  5
4F
102
{ACAD_REACTORS
330
47
102
}
330
47
100
AcDbScale
 70
     0
300
1:20
140
1.0
141
20.0
290
     0
  0
SCALE
  5
50
102
{ACAD_REACTORS
330
47
102
}
330
47
100
AcDbScale
 70
     0
300
1:30
140
1.0
141
30.0
290
     0
  0
SCALE
  5
51
102
{ACAD_REACTORS
330
47
102
}
330
47
100
AcDbScale
 70
     0
300
1:40
140
1.0
141
40.0
290
     0
  0
SCALE
  5
52
102
{ACAD_REACTORS
330
47
102
}
330
47
100
AcDbScale
 70
     0
300
1:50
140
1.0
141
50.0
290
     0
  0
SCALE
  5
53
102
{ACAD_REACTORS
330
47
102
}
330
47
100
AcDbScale
 70
     0
300
1:100
140
1.0
141
100.0
290
     0
  0
SCALE
  5
54
102
{ACAD_REACTORS
330
47
102
}
330
47
100
AcDbScale
 70
     0
300
2:1
140
2.0
141
1.0
290
     0
  0
SCALE
  5
55
102
{ACAD_REACTORS
330
47
102
}
330
47
100
AcDbScale
 70
     0
300
4:1
140
4.0
141
1.0
290
     0
  0
SCALE
  5
56
102
{ACAD_REACTORS
330
47
102
}
330
47
100
AcDbScale
 70
     0
300
8:1
140
8.0
141
1.0
290
     0
  0
SCALE
  5
57
102
{ACAD_REACTORS
330
47
102
}
330
47
100
AcDbScale
 70
     0
300
10:1
140
10.0
141
1.0
290
     0
  0
SCALE
  5
58
102
{ACAD_REACTORS
330
47
102
}
330
47
100
AcDbScale
 70
     0
300
100:1
140
100.0
141
1.0
290
     0
  0
SCALE
  5
59
102
{ACAD_REACTORS
330
47
102
}
330
47
100
AcDbScale
 70
     0
300
1/128" = 1'-0"
140
0.0078125
141
12.0
290
     0
  0
SCALE
  5
5A
102
{ACAD_REACTORS
330
47
102
}
330
47
100
AcDbScale
 70
     0
300
1/64" = 1'-0"
140
0.015625
141
12.0
290
     0
  0
SCALE
  5
5B
102
{ACAD_REACTORS
330
47
102
}
330
47
100
AcDbScale
 70
     0
300
1/32" = 1'-0"
140
0.03125
141
12.0
290
     0
  0
SCALE
  5
5C
102
{ACAD_REACTORS
330
47
102
}
330
47
100
AcDbScale
 70
     0
300
1/16" = 1'-0"
140
0.0625
141
12.0
290
     0
  0
SCALE
  5
5D
102
{ACAD_REACTORS
330
47
102
}
330
47
100
AcDbScale
 70
     0
300
3/32" = 1'-0"
140
0.09375
141
12.0
290
     0
  0
SCALE
  5
5E
102
{ACAD_REACTORS
330
47
102
}
330
47
100
AcDbScale
 70
     0
300
1/8" = 1'-0"
140
0.125
141
12.0
290
     0
  0
SCALE
  5
5F
102
{ACAD_REACTORS
330
47
102
}
330
47
100
AcDbScale
 70
     0
300
3/16" = 1'-0"
140
0.1875
141
12.0
290
     0
  0
SCALE
  5
60
102
{ACAD_REACTORS
330
47
102
}
330
47
100
AcDbScale
 70
     0
300
1/4" = 1'-0"
140
0.25
141
12.0
290
     0
  0
SCALE
  5
61
102
{ACAD_REACTORS
330
47
102
}
330
47
100
AcDbScale
 70
     0
300
3/8" = 1'-0"
140
0.375
141
12.0
290
     0
  0
SCALE
  5
62
102
{ACAD_REACTORS
330
47
102
}
330
47
100
AcDbScale
 70
     0
300
1/2" = 1'-0"
140
0.5
141
12.0
290
     0
  0
SCALE
  5
63
102
{ACAD_REACTORS
330
47
102
}
330
47
100
AcDbScale
 70
     0
300
3/4" = 1'-0"
140
0.75
141
12.0
290
     0
  0
SCALE
  5
64
102
{ACAD_REACTORS
330
47
102
}
330
47
100
AcDbScale
 70
     0
300
1" = 1'-0"
140
1.0
141
12.0
290
     0
  0
SCALE
  5
65
102
{ACAD_REACTORS
330
47
102
}
330
47
100
AcDbScale
 70
     0
300
1-1/2" = 1'-0"
140
1.5
141
12.0
290
     0
  0
SCALE
  5
66
102
{ACAD_REACTORS
330
47
102
}
330
47
100
AcDbScale
 70
     0
300
3" = 1'-0"
140
3.0
141
12.0
290
     0
  0
SCALE
  5
67
102
{ACAD_REACTORS
330
47
102
}
330
47
100
AcDbScale
 70
     0
300
6" = 1'-0"
140
6.0
141
12.0
290
     0
  0
SCALE
  5
68
102
{ACAD_REACTORS
330
47
102
}
330
47
100
AcDbScale
 70
     0
300
1'-0" = 1'-0"
140
12.0
141
12.0
290
     0
  0
ENDSEC
  0
EOF
